» » »

Taion Tabs (ver.2)

Artists:  A B C D E F G H I J K L M N O P Q R S T U V W X Y Z # 

Taion Tabs (ver.2)

Gazette
Rating:
0/5 (0 votes)

Hard to play? Try these video lessons and learn fast.
                -------------------------------------------------------------------------------
                             SONG NAME - Band Name
-------------------------------------------------------------------------------

Tuning: B, F#, B, E, G#, C#

RIFF1
Aoi
|---------------------------------------------------------------------------|
|---------------------------------------------------------------------------|
|---------------------------------------------------------------------------|
|----3-------------------------3--------------------------------------------|
|-1-----1-----4-----3--4----1-----1-----4-----3--4--------------------------|
|----------4-----4-------------------4-----4--------------------------------|

Uruha just plays this chord, here song for timing
|---------------------------------------------------------------------------|
|---------------------------------------------------------------------------|
|---------------------------------------------------------------------------|
|--3-----------------3--3---------------------------------------------------|
|--1-----------------1--1---------------------------------------------------|
|---------------------------------------------------------------------------|

RIFF 2 Verse
Aoi
|--------13------------------------------------13-----------13-------11-------9-------7--------|
|-9--11------11----9/11/9/7--/14--/7----9--11------11--9/11----9/11/9---7/9/7---6/7/6---6/7/6~-|
|----------------------------------------------------------------------------------------------|
|----------------------------------------------------------------------------------------------|
|----------------------------------------------------------------------------------------------|
|----------------------------------------------------------------------------------------------|

Uruha w/delay
|-23-------------------------------------19---------------------------------|
|-23-------------------------------------19---------------------------------|
|-23-------------------------------------20---------------------------------|
|---------------------------------------------------------------------------|
|---------------------------------------------------------------------------|
|---------------------------------------------------------------------------|

RIFF3
Aoi
|---------------------------------------------------------------------------|
|---------------------------------------------------------------------------|
|---------------------------------------------------------------------------|
|---------------------------------------------------------------------------|
|-1--------1--------1-----1----4--4----4------------------------------------|
|-1--------1--------1-----1----4--4----4------------------------------------|
pm                             .  .    .

Uruha
|---------------------------------------------------------------------------|
|---------------------------------------------------------------------------|
|---------------------------------------------------------------------------|
|---------------------------------------------------------------------------|
|-1--------1--------1--1-3-1-3--4--4-3-3------------------------------------|
|-1--------1--------1--1-3-1-3--4--4-3-3------------------------------------|

RIFF4 Pre-chorus
Aoi & Uruha
|---------------------------------------------------------------------------|
|---------------------------------------------------------------------------|
|---------------------------------------------------------------------------|
|---------------------------------------------------------------------------|
|-3.--3-4-3-4---3.--3.--3--4--6---------------------------------------------|
|-3.--3-4-3-4---3.--3.--3--4--6---------------------------------------------|
pm                      .  .  .

play pre-chorus 8 times

then verse and pre-chorus again

Fill before chorus
Aoi
|---------------------------------------------------------------------------|
|---------------------------------------------------------------------------|
|---------------------------------------------------------------------------|
|-8-7---------8-7-----------------------------------------------------------|
|-6-5---------6-5---------6-6-6---------------------------------------------|
|-----0-0-0-0-----0-0-0-0-6-6-6---------------------------------------------|
pm    . . . .     . . . .

Uruha
|---------------------------------------------------------------------------|
|---------------------------------------------------------------------------|
|---------------------------------------------------------------------------|
|---------------------------------------------------------------------------|
|-------------------------6-6-6---------------------------------------------|
|-1p0-0-0-0-0-1p0-0-0-0-0-6-6-6---------------------------------------------|
pm    . . . .     . . . .

RIFF 5 CHORUS
Aoi (clean)
|-------9---------7----------9----------------------------------------------|
|--------------------0--------------12------9-------------------------------|
|-9/11-----11--9--------9/11----11------11-----9----------------------------|
|---------------------------------------------------------------------------|
|---------------------------------------------------------------------------|
|---------------------------------------------------------------------------|

Uruha
|---------------------------------------------------------------------------|
|-----------------------------------------------------13-13-11-11-10-10-10--|
|-----------------------------------------10-12-12-12-12-12-10-10-10-10-10--|
|-----------------------------------------10-12-12-12-----------------------|
|-1-1-1-1-1-1-1-1-0-0-0-0-0-0-0-5-5-5-5-5-----------------------------------|
|-1-1-1-1-1-1-1-1-0-0-0-0-0-0-0-5-5-5-5-5-----------------------------------|

Aoi
|------9---------7----------9-----------------------------------------------|
|-------------------0--------------12------10--9----------------------------|
|-9/11----11--9--------9/11----11------11-----------------------------------|
|---------------------------------------------------------------------------|
|---------------------------------------------------------------------------|
|---------------------------------------------------------------------------|

Uruha
|---------------------------------------------------------------------------|
|---------------------------------------------------------------------------|
|---------------------------------------------------------------------------|
|---------------------------------------------------------------------------|
|-1-1-1-1-1-1-1-1-0-0-0-0-0-0-0-0-5-5-5-5-5-5-5-5-5-5-5-5-5-5-5-5-----------|
|-1-1-1-1-1-1-1-1-0-0-0-0-0-0-0-0-5-5-5-5-5-5-5-5-5-5-5-5-5-5-5-5-----------|

play the chorus twice

RIFF 6
WHile Aoi plays Riff 1 over and over, Uruha plays(listen for timing):
|---------------------------------------------------------------------------|
|---------------------------------------------------------------------------|
|---------------------------------------------------------------------------|
|-3-------------------------------------------------------------------------|
|-1-----8-8-8-4-4-4-4-8-8-8-4-4-4-4-8-8-8-4-4-4-4-8-8-8-4-4-4-4-------------|
|-------8-8-8-4-4-4-4-8-8-8-4-4-4-4-8-8-8-4-4-4-4-8-8-8-4-4-4-4-------------|
pm      . . . . . . . . . . . . . . . . . . . . . . . . . . . .

RIFF7 Solo
Aoi plays this over and over (listen for timing)
|---------------------------------------------------------------------------|
|---------------------------------------------------------------------------|
|---------------------------------------------------------------------------|
|---------------------------------------------------------------------------|
|-4--------4--6--8--------6-------------------------------------------------|
|-4--------4--6--8--------6-------------------------------------------------|

Uruha
|---------------13---------------------------------------------13--13-14-13-|
|-/13-14-13-----------13-14-13-------------------13-14--13------------------|
|------------15-----------------15-11--10-11/15------------15---------------|
|---------------------------------------------------------------------------|
|---------------------------------------------------------------------------|
|---------------------------------------------------------------------------|

|---------------------------------------------------13----------------------|
|-14-13--14-14-13--------------------13-14-13----------14-13----------------|
|------------------15-11--10-11--15-----------15-------------15-------------|
|---------------------------------------------------------------------------|
|---------------------------------------------------------------------------|
|---------------------------------------------------------------------------|

Verse Riff and pre-chorus played once

then chorus 4 times

RIFF 8
on the last 2 times on the chorus Uruha plays this
|------l---------------------------------------------------------------------|
|-10-8-l-8-11-13-7-8-11-15-10-11-15-10-13-11-8---6-8-11-13-10-8-11-15-10-----|
|------l---------------------------------------7-----------------------------|
|-7--3-l-5-8--10-5-5-8--12-7--8--12-7--10-8--5---3-6-8--10-7--5-8--12-7------|
|------l---------------------------------------5-----------------------------|
|------l---------------------------------------------------------------------|
take too long to tab, so Ill just give what you play and you listen for timing
|----13-15------------------------------------------------------------------|
|-11-------10-11-11---------------------------------------------------------|
|----10-12------------------------------------------------------------------|
|-9--------7--8--8----------------------------------------------------------|
|---------------------------------------------------------------------------|
|---------------------------------------------------------------------------|

End with Verse 1
but Aoi's changes a bit amd ends like this on one part and the final part
|---------------------------------------------------------------------------|
|---------------------------------------------------------------------------|
|---------------------------------------------------------------------------|
|----3----------------------------------------------------------------------|
|-1-----1-----4-----4-------------------------------------------------------|
|----------4-----4-----3----------------------------------------------------|
            
Hard to play? Try these video lessons and learn fast. | Correct




comments powered by Disqus
↑ Back to top | Tablatures and chords are parodies/interpretations of the original songs. You may use it for private study, scholarship, research or language learning purposes only