» » »

Silly God Disco Bass tabs (ver.1)

Artists:  A B C D E F G H I J K L M N O P Q R S T U V W X Y Z # 

Silly God Disco Bass tabs (ver.1)

Gazette
Rating:
0/5 (0 votes)

Tabs too difficult? Try these video lessons and learn fast.
                Okay so I'm not a hard core J-Rocker, I barely even listen to J-Rock, but I love 
this song, so.... I tabbed it.
I think its pretty good, theres one part I'm not sure about.
I'll mark that part with some stars or something

G|-------------------------|-------------------------|
D|-------------------------|-------------------------|
A|-0h2-2-2-0h2-2-5-2h5-2-0-|-0h2-2-2-0h2-2-5-2h5-2-0-|
E|-------------------------|-------------------------|

|-------------------------|-------------4-----------|
|-------------------------|-------------------------|
|-0h2-2-2-0h2-2-5-2h5-2-0-|-0h2-2-2-0h2---2h5p2-2-0-|
|-------------------------|-------------------------|

|-------------------------|-------------------------|
|-------------------------|-------------------------|
|-0h2-2-2-0h2-2-5-2h5-2-0-|-0h2-2-2-0h2-2-5-2h5-2-0-|
|-------------------------|-------------------------|

|-------------------------|-------------4-----------|
|-------------------------|-------------------------|
|-0h2-2-2-0h2-2-5-2h5-2-0-|-0h2-2-2-0h2---2h5p2-2-0-|
|-------------------------|-------------------------|

|-------------------------|-------------------------|
|-------------------------|-------------------------|
|-5-5-5-5-5-5-5-5-5-5-5-5-|-0-0-0-0-0-0-0h2~--------|
|-------------------------|-------------------------|

|-------------------------|-------------------------|
|-------------------------|-------------------------|
|-0h2-2-2-0h2-2-5-2h5-2-0-|-0h2-2-2-0h2-2-5-2h5-2-0-|
|-------------------------|-------------------------|

|----------|----------|-------------------------|-----------------|
|----------|----------|-------------------------|-----------------|
|-2-2------|-2-2------|-5-5-5-5-5-5-5-5-5-5-5-5-|-0-0-0-0-0-0-0h2~|
|----------|----------|-------------------------|-----------------|

|----------|----------|-------------------------|-----------------|
|----------|----------|-------------------------|-----------------|
|-2-2------|-2-2------|-5-5-5-5-5-5-5-5-5-5-5-5-|-7-7-7-7-7-7-7/0-|
|----------|----------|-------------------------|-----------------|

|-------------------------|-------------------------|
|-------------------------|-------------------------|
|-0h2-2-2-0h2-2-5-2h5-2-0-|-0h2-2-2-0h2-2-5-2h5-2-0-|
|-------------------------|-------------------------|

|-------------------------|-------------4-----------|
|-------------------------|-------------------------|
|-0h2-2-2-0h2-2-5-2h5-2-0-|-0h2-2-2-0h2---2h5p2-2-0-|
|-------------------------|-------------------------|

|----------|----------|-------------------------|-----------------|
|----------|----------|-------------------------|-----------------|
|-2-2------|-2-2------|-5-5-5-5-5-5-5-5-5-5-5-5-|-0-0-0-0-0-0-0h2~|
|----------|----------|-------------------------|-----------------|

|----------|----------|-------------------------|-----------------|
|----------|----------|-------------------------|-----------------|
|-2-2------|-2-2------|-5-5-5-5-5-5-5-5-5-5-5-5-|-7-7-7-7-7-7-7/0-|
|----------|----------|-------------------------|-----------------|

|---------------------------------|---------------------------------|
|---------------------------------|---------------------------------|
|-0-0-0-0-0-0-0-0-0-0-0-0-0-0-0-0-|-2-2-2-2-2-2-2-2-2-2-2-2-2-2-2-2-|
|---------------------------------|---------------------------------|

|---------------------------------|---------------------------------|
|---------------------------------|---------------------------------|
|-4-4-4-4-4-4-4-4-4-4-4-4-4-4-4-4-|-5-5-5-5-5-5-5-5-5-5-5-5-5-4-2-0-|
|---------------------------------|---------------------------------|

|---------------------------------|---------------------------------|
|---------------------------------|---------------------------------|
|-0-0-0-0-0-0-0-0-0-0-0-0-0-0-0-0-|-2-2-2-2-2-2-2-2-2-2-2-2-2-2-2-2-|
|---------------------------------|---------------------------------|

|---------------------------------|---------------------------------|
|---------------------------------|---------------------------------|
|-4-4-4-4-4-4-4-4-4-4-4-4-4-4-4-4-|-5-5-5-5-5-5-5-5-5-5-4-4-2-2-0-0-|
|---------------------------------|---------------------------------|

    |-----------------|-----------------|-------------------|---------|
****|-----------------|-----------------|-------------------|---------|****
****|-0-0—2/8-8-7-8\0-|-2-2-2/9-9-8-9\0-|2-2-2/10-10-9-10\0-|-7~5~4~2~|****
    |-----------------|-----------------|-------------------|---------|

|-------------------------|-------------------------|
|-------------------------|-------------------------|
|-0h2-2-2-0h2-2-5-2h5-2-0-|-0h2-2-2-0h2-2-5-2h5-2-0-|
|-------------------------|-------------------------|

|-------------------------|---------|
|-------------------------|---------|
|-0h2-2-2-0h2-2-5-2h5-2-0-|-5~~~7~~~|
|-------------------------|---------|

|-------------------------|-------------------------|
|-------------------------|-------------------------|
|-0h2-2-2-0h2-2-5-2h5-2-0-|-0h2-2-2-0h2-2-5-2h5-2-0-|
|-------------------------|-------------------------|

|-------------------------|---------|
|-------------------------|---------|
|-0h2-2-2-0h2-2-5-2h5-2-0-|-5~~~7~~~|
|-------------------------|---------|

|--------------|-----------------|--------------|-----------------|
|--------------|-----------------|--------------|-----------------|
|-2--5--7--0-2-|-5h7-5-0h2-5-2p0-|-2--5--7--0-2-|-5h7-5-0h2-5-2p0-|
|--------------|-----------------|--------------|-----------------|

|--------------|-----------------|--------------|-----------------|
|--------------|-----------------|--------------|-----------------|
|-2--5--7--0-2-|-5h7-5-0h2-5-2p0-|-2--5--7--0-2-|-5h7-5-0h2-5-2p0-|
|--------------|-----------------|--------------|-----------------|

|--------------|-----------------|--------------|-----------------|
|--------------|-----------------|--------------|-----------------|
|-2--5--7--0-2-|-5h7-5-0h2-5-2p0-|-2--5--7--0-2-|-5h7-5-0h2-5-2p0-|
|--------------|-----------------|--------------|-----------------|

|--------------|-----------------|--------------|-----------------|
|--------------|-----------------|--------------|-----------------|
|-2--5--7--0-2-|-5h7-5-0h2-5-2p0-|-2--5--7--0-2-|-5h7-5-0h2-5-2p0-|
|--------------|-----------------|--------------|-----------------|

|------|----------------------|
|------|----------------------|
|-5~~~~|-0h2/5h7-0h2/5h7-7-9~~|
|------|----------------------|

|---------------------------------|---------------------------------|
|---------------------------------|---------------------------------|
|-0-0-0-0-0-0-0-0-0-0-0-0-0-0-0-0-|-2-2-2-2-2-2-2-2-2-2-2-2-2-2-2-2-|
|---------------------------------|---------------------------------|

|---------------------------------|---------------------------------|
|---------------------------------|---------------------------------|
|-4-4-4-4-4-4-4-4-4-4-4-4-4-4-4-4-|-5-5-5-5-5-5-5-5-5-5-5-5-5-4-2-0-|
|---------------------------------|---------------------------------|

|---------------------------------|---------------------------------|
|---------------------------------|---------------------------------|
|-0-0-0-0-0-0-0-0-0-0-0-0-0-0-0-0-|-2-2-2-2-2-2-2-2-2-2-2-2-2-2-2-2-|
|---------------------------------|---------------------------------|

|---------------------------------|---------------------------------|
|---------------------------------|---------------------------------|
|-4-4-4-4-4-4-4-4-4-4-4-4-4-4-4-4-|-5-5-5-5-5-5-5-5-5-5-4-4-2-2-0-0-|
|---------------------------------|---------------------------------|

    |-----------------|-----------------|-------------------|---------|
****|-----------------|-----------------|-------------------|---------|****
****|-0-0—2/8-8-7-8\0-|-2-2-2/9-9-8-9\0-|2-2-2/10-10-9-10\0-|-7~5~4~2~|****
    |-----------------|-----------------|-------------------|---------|

|-------------------------|-------------------------|
|-------------------------|-------------------------|
|-0h2-2-2-0h2-2-5-2h5-2-0-|-0h2-2-2-0h2-2-5-2h5-2-0-|
|-------------------------|-------------------------|

|-------------------------|---------|
|-------------------------|---------|
|-0h2-2-2-0h2-2-5-2h5-2-0-|-5~~~7~~~|
|-------------------------|---------|

|-------------------------|-------------------------|
|-------------------------|-------------------------|
|-0h2-2-2-0h2-2-5-2h5-2-0-|-0h2-2-2-0h2-2-5-2h5-2-0-|
|-------------------------|-------------------------|

|-------------------------|---------|
|-------------------------|---------|
|-0h2-2-2-0h2-2-5-2h5-2-0-|-5~~~7~~~|
|-------------------------|---------|

|-------------------------|-------------------------|
|-------------------------|-------------------------|
|-0h2-2-2-0h2-2-5-2h5-2-0-|-0h2-2-2-0h2-2-5-2h5-2-0-|
|-------------------------|-------------------------|

|-------------------------|---------|
|-------------------------|---------|
|-0h2-2-2-0h2-2-5-2h5-2-0-|-5~~~7~~~|
|-------------------------|---------|

|-------------------------|-------------------------|
|-------------------------|-------------------------|
|-0h2-2-2-0h2-2-5-2h5-2-0-|-0h2-2-2-0h2-2-5-2h5-2-0-|
|-------------------------|-------------------------|

|-------------------------|---------|---------|---------|-----|
|-------------------------|---------|---------|---------|-----|
|-0h2-2-2-0h2-2-5-2h5-2-0-|-5~~~7~~~|-5~~~7~~~|-5~~~7~~~|-0-00|
|-------------------------|---------|---------|---------|-----|
            
Tabs too difficult? Try these video lessons and learn fast.




comments powered by Disqus
↑ Back to top | Tablatures and chords are parodies/interpretations of the original songs. You may use it for private study, scholarship, research or language learning purposes only