>
 >
Reila

Reila Bass Tabs

Gazette - Reila chords, tabs, tablatures, lyrics

Guitar lessons | Add/correct | Request | Top 50 tabs Artists:  A B C D E F G H I J K L M N O P Q R S T U V W X Y Z 0-9

Reila Bass Tabs – Gazette

CD, Sheet music, Poster

Do you like Reila? Share with your friends now
Bass TabsTabsTabs v2
Woot it is a gazette song that's in standard tuning :P

Reila - The GazettE



                     E  E  E  S E  S E  E  E     E  E  E  S E  S E  E  E   
G||-------|-------|---------------------------|---------------------------|
D||-------|-------|---------------------------|---------------------------|
A||-------|-------|--3--3--3--3-3--3-2--3--5--|--2--2--2--2-3--3-2--------|
E||-------|-------|---------------------------|---------------------3--2--|


  E  E  E  S E  S E  E  E     E  E  E  S E  S E  E  E   
---------------------------|---------------------------|
---------------------------|---------------------------|
---------------------------|---------------------------|
--0--0--0--0-3--3-0--3--5--|--7--3--3--3-5--5-3--2--3--|


  E  E  E  S E  S E  E  E     E  E  E  S E  S E  E  E   
---------------------------|---------------------------|
---------------------------|---------------------------|
--3--3--3--3-3--3-2--3--5--|--2--2--2--2-3--3-2--------|
---------------------------|---------------------3--2--|


  E  E  E  S E  S E  E  E     E  E  E  S E  S E  Q      
---------------------------|---------------------------|
---------------------------|---------------------------|
---------------------------|---------------------------|
--0--0--0--0-3--3-0--3--5--|--3--3--3--3-5--5-3--2\----|


  E  E  E  S E  S E  E  E     E  E  E  S E  S E  E  E   
---------------------------|---------------------------|
---------------------------|---------------------------|
--3--3--3--3-3--3-2--3--5--|--2--2--2--2-3--3-2--------|
---------------------------|---------------------3--2--|


  E  E  E  S E  S E  E  E     E  E  E  S E  S E  E  E   
---------------------------|---------------------------|
---------------------------|---------------------------|
---------------------------|---------------------------|
--0--0--0--0-3--3-0--3--5--|--7--3--3--3-5--5-3--2--3--|


  E  E  E  S E  S E  E  E     E  E  E  S E  S E  E  E   
---------------------------|---------------------------|
---------------------------|---------------------------|
--3--3--3--3-3--3-2--3--5--|--2--2--2--2-3--3-2--------|
---------------------------|---------------------3--2--|


                                                     
                                 
  E  E  E  S E  S E  E  E     W                E  E  E   

---------------------------|----------------------------|
---------------------------|----------------------------|
---------------------------|----------------------0--2--|
--0--0--0--0-0--0-0--0--0--|--0-------------------------|


  E  E  E  E  E  E  E  E     E  E  E  E  E  E  E  E   
--------------------------|--------------------------|
--------------------------|--------------------------|
--3--3--3--3--3--3--3--3--|--3--3--3--3--3--3--3--3--|
--------------------------|--------------------------|


  E  E  E  E  E  E  E  E     E  E  E  E  E  E  E  E   
--------------------------|--------------------------|
--------------------------|--------------------------|
--------------------------|--------------------------|
--0--0--0--0--0--0--0--0--|--0--0--7--0--7--0--3--5--|


  E  E  E  E  E  E  E  E     E  E  E  E  E  E  E  E   
--------------------------|--------------------------|
--------------------------|--------------------------|
--3--3--3--3--3--3--3--3--|--2--2--2--2--2--2--2--2--|
--------------------------|--------------------------|


  E  E  E  E  E  E  E  E     E  E  E  E  E  E  Q       E  E  E  E  E  E  E  E   

--------------------------|-------------------------|--------------------------|
--------------------------|-------------------------|--------------------------|
--------------------------|--------------------2----|--3--3--3--3--3--3--3--3--|
--0--0--0--0--0--0--0--0--|-----0--2--3--5--3-------|--------------------------|


  E  E  E  E  E  E  E  E     E  E  E  E  E  E  E  E   
--------------------------|--------------------------|
--------------------------|--------------------------|
--3--3--3--3--3--3--3--3--|--------------------------|
--------------------------|--0--0--0--0--0--0--0--0--|


  E  E  E  E  E  E  E  E     E  E  E  E  E  E  E  E   

--------------------------|--------------------------|
--------------------------|--------------------------|
--------------------------|--3--3--3--3--3--3--3--3--|
--0--0--7--0--7--0--3--5--|--------------------------|


  E  E  E  E  E  E  E  E     E  E  E  E  E  E  E  E   
--------------------------|--------------------------|
--------------------------|--------------------------|
--2--2--2--2--2--2--2--2--|--------------------------|
--------------------------|--0--0--0--0--0--0--0--0--|


  E  E  E  E  E  E  E  E     E  E  E  E  E  E  E  E   
--------------------------|--------------------------|
--------------------------|--------------------------|
-----7--7--7--7--7--7--5--|--3--3--3--3--3--3--3--3--|
--L-----------------------|--------------------------|


  E  E  E  E  E  E  E  E     E  E  E  E  E  E  E  E   
--------------------------|--------------------------|
--------------------------|--------------------------|
--3--3--3--3--3--3--3--3--|--------------------------|
--------------------------|--0--0--0--0--0--0--0--0--|


  E  E  E  E  E  E  E  E     E  E  E  E  E  E  E  E   
--------------------------|--------------------------|
--------------------------|--------------------------|
--------------------------|--3--3--3--3--3--3--3--3--|
--0--0--7--0--7--0--3--5--|--------------------------|


  E  E  E  E  E  E  E  E     E  E  E  E  E  E  E  E   
--------------------------|--------------------------|
--------------------------|--------------------------|
--2--2--2--2--2--2--2--2--|--------------------------|
--------------------------|--0--0--0--0--0--0--0--0--|


  E  E  E  E  E  E  E  E     E  E  E  E  E  E  E  E   
--------------------------|--------------------------|
--------------------------|--------------------------|
--------------------2-----|--3--3--3--3--3--3--3--3--|
--L--0--2--3--5--3-----3--|--------------------------|


  E  E  E  E  E  E  E  E     E  E  E  E  E  E  E  E   
--------------------------|--------------------------|
--------------------------|--------------------------|
--3--3--3--3--3--3--3--3--|--------------------------|
--------------------------|--0--0--0--0--0--0--0--0--|


  E  E  E  E  E  E  E  E     E  E  E  E  E  E  E  E   
--------------------------|--------------------------|
--------------------------|--------------------------|
--------------------------|--3--3--3--3--3--3--3--3--|
--0--0--7--0--7--0--3--5--|--------------------------|


  E  E  E  E  E  E  E  E     E  E  E  E  E  E  E  E   
--------------------------|--------------------------|
--------------------------|--------------------------|
--2--2--2--2--2--2--2--2--|--------------------------|
--------------------------|--0--0--0--0--0--0--0--0--|


  E   E  E  E  E  E  E  E     E  E  E  S E  S E  E  S S  

---------------------------|----------------------------|
---------------------------|----------------------------|
---------------------------|----------------------------|
--L--/3--3--3--5--5--0--2--|--3--3--3--3-3--3-3--3--3-3-|


  E  E  E  Q     E  Q        E  E  E  S E  S  E  E  E     E  Q    Q    E  Q     

--------------------------|----------------------------|-----------------------|
--------------------------|----------------------------|-----------------------|
--------2--9S----2--9S----|-------------------------9--|--L--7----5------------|
--2--2--------------------|--7--7--7----7--7-/5--7-----|---------------5--2----|


  E  E  E  S E  S E   S S E     E  E  E  S E  S E  Q      
-----------------------------|---------------------------|
-----------------------------|---------------------------|
-----------------------------|---------------------------|
--3--3--3----3----3/--7------|--2--2--2----2----2--2\----|


  E  E  E  S E  S E  Q        E  E  E  S E  S E  Q      
---------------------------|---------------------------|
---------------------------|---------------------------|
--2--2--2----9--9-9--9\----|--2--2--2----9--9-9--9\----|
---------------------------|---------------------------|


  E  E  E  S E  S E  E  S S    E  E  E  S  E  S E  Q      
----------------------------|----------------------------|
----------------------------|----------------------------|
----------------------------|-------------/9--9----------|
--3--3--3--3-3--3-3--3--3-3-|--2--2--2----------2--2\----|


  E  E  E  S E  S S S S S S  S    E  Q    Q    E  Q     
-------------------------------|-----------------------|
----------------------------/4-|--L--2----0-------2----|
--2--2--2----2----0---2--------|---------------2-------|
-------------------------------|-----------------------|


  E  E  E  S E  S E  S S S S    E  E  E  S E  S E  E  E   
-----------------------------|---------------------------|
-----------------------------|---------------------------|
-----------------------------|--9--9--9----9----9-----4--|
--3--3--3----3----3--3---5-7-|---------------------2-----|


  E  E  E  S E  S E  E  E             E  E  E  S E  S E  E  E   
---------------------------|-------|---------------------------|
---------------------------|-------|---------------------------|
--2--2--2--2-2--2-2--2--2--|-------|--3--3--3--3-3--3-2--3--5--|
---------------------------|-------|---------------------------|


  E  E  E  S E  S E  E  E     E  E  E  S E  S E  E  E   
---------------------------|---------------------------|
------------------------4--|---------------------------|
--2--2--2--2-2--2-0--2-----|---------------------------|
---------------------------|--0--0--0--0-3--3-0--3--5--|


  E  E  E  S E  S E  E  E     E  E  E  S E  S E  E  E   
---------------------------|---------------------------|
---------------------------|---------------------------|
---------------------------|--3--3--3--3-3--3-2--3--5--|
--7--3--3--3-5--5-3--2--3--|---------------------------|


  E  E  E  S E  S E  E  E     E  E  E  S E  S E  E  E   
---------------------------|---------------------------|
------------------------4--|---------------------------|
--2--2--2--2-2--2-0--2-----|---------------------------|
---------------------------|--0--0--0--0-3--3-0--3--5--|


  E  E  E  S E  S E  E  E     E  E  E  S E  S E  E  E   
---------------------------|---------------------------|
---------------------------|---------------------------|
---------------------------|--3--3--3--3-3--3-2--3--5--|
--3--3--3--3-5--5-3--2--3--|---------------------------|


  E  E  E  S E  S E  E  E     E  E  E  S E  S E  E  E   
---------------------------|---------------------------|
------------------------4--|---------------------------|
--2--2--2--2-2--2-0--2-----|---------------------------|
---------------------------|--0--0--0--0-3--3-0--3--5--|


  E  E  E  S E  S E  E  E     E  E  E  S E  S E  E  E   
---------------------------|---------------------------|
---------------------------|---------------------------|
---------------------------|--3--3--3--3-3--3-2--3--5--|
--7--3--3--3-5--5-3--2--3--|---------------------------|


  E  E  E  S E  S E  E  E     E  E  E  S E  S E  E  E   
---------------------------|---------------------------|
------------------------4--|---------------------------|
--2--2--2--2-2--2-0--2-----|---------------------------|
---------------------------|--0--0--0--0-3--3-0--3--5--|


  E  E  E  S E  S E  E  E     W                   Q    E.   E.  E  E  E   
---------------------------|-------------------|-------------------------|
---------------------------|-------------------|-----------/5---4--0--L--|
---------------------------|--3----------------|--2----L-----------------|
--3--3--3--3-5--5-3--2--3--|-------------------|-------------------------|


  E  E  E   Q     E  E   E      W                   W                 
------------------------(9)--|--L----------------|-------------------|
-----9--x---7-----9--x---9---|--L----------------|-------------------|
--7-----x--(7)-------x-------|--L----------------|--3----------------|
-----------------------------|-------------------|-------------------|


  Q    E.   E.  E  Q       Q    E   Q.      E  E     W                 
------------------------|----------------------9--|--L----------------|
-----------/9---7--4----|-------x--(9)------x--9--|--L----------------|
--2----L----------------|--7----x---7-------x-----|-------------------|
------------------------|-------------------------|-------------------|


  W                    Q     E.   E.  E  E  E     E  E  E   Q     E  E   E    
-------------------|---------------------------|-----------------------------|
-------------------|--(0)----L---/5---4--0--L--|-----9--x---7-----9--x--(9)--|
--3----------------|---2-----L-----------------|--7-----x--(7)-------x--10---|
-------------------|---------------------------|-----------------------------|


  W                   W                   Q    E.   E.  E  Q     
-------------------|-------------------|------------------------|
--L----------------|-------------------|-------L----------------|
--L----------------|--3----------------|--2----L---/2---0-------|
--L----------------|-------------------|-------------------3----|


  Q    E  Q    Q    E     E  E  E  E  E  E  E  E     E  E  E  S E  S E  E  E   
-----------------------|--------------------------|---------------------------|
----------9----9----9--|--------------9--9--9--9--|---------------------------|
----------7----7----7--|--L--7--7--7--7--7--7--7--|--3--3--3--3-3--3-2--3--5--|
--0----L--0----0----0--|--L--0--0--0--0--0--0--0--|---------------------------|


  E  E  E  S E  S E  E  E     E  E  E  S E  S E  E  E   
---------------------------|---------------------------|
------------------------4--|---------------------------|
--2--2--2--2-2--2-0--2-----|---------------------------|
---------------------------|--0--0--0--0-3--3-0--3--5--|


  E  E  E  S E  S E  E  E     E  E  E  S E  S E  E  E   
---------------------------|---------------------------|
---------------------------|---------------------------|
---------------------------|--3--3--3--3-3--3-2--3--5--|
--7--3--3--3-5--5-3--2--3--|---------------------------|


  E  E  E  S E  S E  E  E     E  E  E  S E  S E  E  E   
---------------------------|---------------------------|
------------------------4--|---------------------------|
--2--2--2--2-2--2-0--2-----|---------------------------|
---------------------------|--0--0--0--0-3--3-0--3--5--|


  E  E  E  S E  S E  E  E     E  E  E  S E  S E  E  E   
---------------------------|---------------------------|
---------------------------|---------------------------|
---------------------------|--3--3--3--3-3--3-2--3--5--|
--3--3--3--3-5--5-3--2--3--|---------------------------|


  E  E  E  S E  S E  E  E     E  E  E  S E  S E  E  E   
---------------------------|---------------------------|
------------------------4--|---------------------------|
--2--2--2--2-2--2-0--2-----|---------------------------|
---------------------------|--0--0--0--0-3--3-0--3--5--|


  E  E  E  S E  S E  E  E     E  E  E  S E  S E  E  E   
---------------------------|---------------------------|
---------------------------|---------------------------|
---------------------------|--3--3--3--3-3--3-2--3--5--|
--7--3--3--3-5--5-3--2--3--|---------------------------|


  E  E  E  S E  S E  E  E     S S E  E  S E  S E  E  E   
---------------------------|----------------------------|
------------------------4--|----------------------------|
--2--2--2--2-2--2-0--2-----|--------------7--7-7--7--7--|
---------------------------|--0-0-0--0--0---------------|


  E  E  E  S E  S E  E  E     E  E  E  S E  S E  E  E   
---------------------------|---------------------------|
---------------------------|------------------------4--|
--3--3--3--3-3--3-2--3--5--|--2--2--2--2-2--2-0--2-----|
---------------------------|---------------------------|


  E  E  E  S E  S E  E  E     E  E  E  S E  S E  E  E   
---------------------------|---------------------------|
---------------------------|---------------------------|
---------------------------|---------------------------|
--0--0--0--0-3--3-0--3--5--|--7--3--3--3-5--5-3--2--3--|


  E  E  E  S E  S E  E  E     E  E  E  S E  S E  E  E   
---------------------------|---------------------------|
---------------------------|------------------------4--|
--3--3--3--3-3--3-2--3--5--|--2--2--2--2-2--2-0--2-----|
---------------------------|---------------------------|


  E  E  E  S E  S E  E  E     E  E  E  S E  S E  E  E   
---------------------------|---------------------------|
---------------------------|---------------------------|
---------------------------|---------------------------|
--0--0--0--0-3--3-0--3--5--|--3--3--3--3-5--5-3--2--3--|


  E  E  E  S E  S E  E  E     E  E  E  S E  S E  E  E   
---------------------------|---------------------------|
---------------------------|------------------------4--|
--3--3--3--3-3--3-2--3--5--|--2--2--2--2-2--2-0--2-----|
---------------------------|---------------------------|


  E  E  E  S E  S E  E  E     E  E  E  S E  S E  E  E   
---------------------------|---------------------------|
---------------------------|---------------------------|
---------------------------|---------------------------|
--0--0--0--0-3--3-0--3--5--|--7--3--3--3-5--5-3--2--3--|


  E  E  E  S E  S E  E  E     E  E  E  S E  S E  E  E   
---------------------------|---------------------------|
---------------------------|------------------------4--|
--3--3--3--3-3--3-2--3--5--|--2--2--2--2-2--2-0--2-----|
---------------------------|---------------------------|


  S S E  E  S E  S E  E  E     E  E  E  S E  S E  E  S S  
----------------------------|----------------------------|
----------------------------|----------------------------|
--------------7--7-7--7--7--|----------------------------|
--0-0-0--0--0---------------|--3--3--3--3-3--3-3--3--3-3-|


  E  E  E  Q     E  Q        E  E  E  S E  S  E  E  E     E  Q    Q    E  Q     
--------------------------|----------------------------|-----------------------|
--------------------------|----------------------------|-----------------------|
--------2--9S----2--9S----|-------------------------9--|--L--7----5------------|
--2--2--------------------|--7--7--7----7----/5--7-----|---------------5--2----|


  E  E  E  S E  S E   S S E     E  E  E  S E  S E  Q      
-----------------------------|---------------------------|
-----------------------------|---------------------------|
-----------------------------|---------------------------|
--3--3--3----3----3/----7----|--2--2--2----2----2--2\----|


  E  E  E  S E  S E  Q        E  E  E  S E  S E  Q      
---------------------------|---------------------------|
---------------------------|---------------------------|
--2--2--2----9--9-9--9\----|--2--2--2----9--9-9--9\----|
---------------------------|---------------------------|


  E  E  E  S E  S E  E  S S    E  E  E  S  E  S E  Q      
----------------------------|----------------------------|
----------------------------|----------------------------|
----------------------------|-------------/9--9----------|
--3--3--3--3-3--3-3--3--3-3-|--2--2--2----------2--2\----|


  E  E  E  S E  S S S S S S  S    E  Q    Q    E  Q     
-------------------------------|-----------------------|
----------------------------/4-|--L--2----0-------2----|
--2--2--2----2----0---2--------|---------------2-------|
-------------------------------|-----------------------|


  E  E  E  S E  S E  S S S S    E  E  E  S E  S E  E  E   
-----------------------------|---------------------------|
-----------------------------|---------------------------|
-----------------------------|--9--9--9----9----9-----4--|
--3--3--3----3----3--3---5-7-|---------------------2-----|


  E  E  E  S E  S E  E  E             S E  S E  S E.  E  Q      
---------------------------|-------|---------------------------|
---------------------------|-------|---------------------------|
--2--2--2--2-2--2-2--2--2--|-------|---------------------2\----|
---------------------------|-------|--x-2--x-3--x-5---2--------|


  Q    E  S E  S E  E  E     E  E  E  S E  S E  E  E   

--------------------------|---------------------------|
--------------------------|------------------------4--|
-------3--3-3--3-2--3--5--|--2--2--2--2-2--2-0--2-----|
--------------------------|---------------------------|


  E  E  E  S E  S E  E  E     E  E  E  S E  S E  E  E   
---------------------------|---------------------------|
---------------------------|---------------------------|
---------------------------|---------------------------|
--0--0--0--0-3--3-0--3--5--|--7--3--3--3-5--5-3--2--3--|


  E  E  E  S E  S E  E  E     E  E  E  S E  S E  E  E   
---------------------------|---------------------------|
---------------------------|------------------------4--|
--3--3--3--3-3--3-2--3--5--|--2--2--2--2-2--2-0--2-----|
---------------------------|---------------------------|


  E  E  E  S E  S E  E  E     E  E  E  S E  S E  E  E   

---------------------------|---------------------------|
---------------------------|---------------------------|
---------------------------|---------------------------|
--0--0--0--0-3--3-0--3--5--|--3--3--3--3-5--5-3--2--3--|


  E  E  E  S E  S E  E  E     E  E  E  S E  S E  E  E   
---------------------------|---------------------------|
---------------------------|------------------------4--|
--3--3--3--3-3--3-2--3--5--|--2--2--2--2-2--2-0--2-----|
---------------------------|---------------------------|


  E  E  E  S E  S E  E  E     E  E  E  S E  S E  E  E   
---------------------------|---------------------------|
---------------------------|---------------------------|
---------------------------|---------------------------|
--0--0--0--0-3--3-0--3--5--|--7--3--3--3-5--5-3--2--3--|


  E  E  E  S E  S E  E  E     E  E  E  S E  S E  E  E   
---------------------------|---------------------------|
---------------------------|------------------------4--|
--3--3--3--3-3--3-2--3--5--|--2--2--2--2-2--2-0--2-----|
---------------------------|---------------------------|


  E  E  E  S E  S E  E  E     E  E  E  S E  S E  E  E   
---------------------------|---------------------------|
---------------------------|---------------------------|
---------------------------|---------------------------|
--0--0--0--0-3--3-0--3--5--|--3--3--3--3-5--5-3--2--3--|


  E  E  E  S E  S E  E  E     E  E  E  S E  S E  E  E   
---------------------------|---------------------------|
---------------------------|------------------------4--|
--3--3--3--3-3--3-2--3--5--|--2--2--2--2-2--2-0--2-----|
---------------------------|---------------------------|


  E  E  E  S E  S E  E  E     E  E  E  S E  S E  E  E   
---------------------------|---------------------------|
---------------------------|---------------------------|
---------------------------|---------------------------|
--0--0--0--0-3--3-0--3--5--|--7--3--3--3-5--5-3--2--3--|


  E  E  E  S E  S E  E  E     E  E  E  S E  S E  E  E   
---------------------------|---------------------------|
---------------------------|------------------------4--|
--3--3--3--3-3--3-2--3--5--|--2--2--2--2-2--2-0--2-----|
---------------------------|---------------------------|


  E  E  E  S E  S E  E  E     E  E  E  S E  S E  E  E   
---------------------------|---------------------------|
---------------------------|---------------------------|
---------------------------|---------------------------|
--0--0--0--0-3--3-0--3--5--|--3--3--3--3-5--5-3--2--3--|


  E  E  E  S E  S E  E  E     E  E  E  S E  S E  E  E   
---------------------------|---------------------------|
---------------------------|------------------------4--|
--3--3--3--3-3--3-2--3--5--|--2--2--2--2-2--2-0--2-----|
---------------------------|---------------------------|


  E  E  E  S E  S E  E  E     E  E  E  S E  S E  E  E   
---------------------------|---------------------------|
---------------------------|---------------------------|
---------------------------|---------------------------|
--0--0--0--0-3--3-0--3--5--|--7--3--3--3-5--5-3--2--3--|


  E  E  E  S E  S E  E  E     E  E  E  S E  S E  E  E   
---------------------------|---------------------------|
---------------------------|------------------------4--|
--3--3--3--3-3--3----5--3--|--2--2--2--2-2--2-0--2-----|
------------------3--------|---------------------------|


  E  E  E  S E  S E  E  E     E  E  E  S E  S E  E  E   
---------------------------|---------------------------|
---------------------------|---------------------------|
---------------------------|---------------------------|
--0--0--0--0-3--3-0--3--5--|--3--3--3--3-5--5-3--2--3--|


  E  E  E  S E.  E  E  E     E  E  E  S E.  E  E  E   
--------------------------|--------------------------|
--------------------------|--------------------------|
--3--3--3--3-3---7--5--0--|--2--2--2--2-2---2--5--5--|
--------------------------|--------------------------|


  E  E  E  S E.  E  E  E     E  E  E  S E.  E  E  E   
--------------------------|--------------------------|
--------------------------|--------------------------|
--------------------------|--------------------------|
--0--0--0--0-0---0--0--0--|--3--3--3--3-3---3--3--3--|


  E  E  E  S E.  E  E  E     E  E  E  S E.  E  E  E   
--------------------------|--------------------------|
--------------------------|--------------------------|
--3--3--3--3-3---7--5--0--|--2--2--2--2-2---2--5--5--|
--------------------------|--------------------------|


  E  E  E  S E.  E  E  E     E  E  E  S E.  E  E  E   
--------------------------|--------------------------|
--------------------------|--------------------------|
--------------------------|--------------------------|
--0--0--0--0-0---0--0--0--|--3--3--3--3-3---3--3--3--|


  E  E  E  S E.  E  E  E     E  E  E  S E.  E  E  E   
--------------------------|--------------------------|
--------------------------|--------------------------|
--3--3--3--3-3---7--5--0--|--2--2--2--2-2---2--5--5--|
--------------------------|--------------------------|


  E  E  E  S E.  E  E  E     E  E  E  S E.  E  E  E   
--------------------------|--------------------------|
--------------------------|--------------------------|
--------------------------|--------------------------|
--0--0--0--0-0---0--0--0--|--3--3--3--3-3---3--3--3--|


  E  E  E  S E.  E  E  E     E  E  E  S E.  E  E  E   

--------------------------|--------------------------|
--------------------------|--------------------------|
--3--3--3--3-3---7--5--0--|--2--2--2--2-2---2--5--5--|
--------------------------|--------------------------|


  E  E  E  S E.  E  E  E     E  E  E  S E.  E  E  E                     
--------------------------|--------------------------|-----|-----|-----|
--------------------------|--------------------------|-----|-----|-----|
--------------------------|--------------------------|-----|-----|-----|
--0--0--0--0-0---0--0--0--|--3--3--3--3-3---3--3--3--|-----|-----|-----|


  Q    E  E  E  E  E  S S    S S E  S S S S S S S S S S S S  
--------------------------|---------------------------------|
--------------------------|---------------------------------|
--------------------------|---------------------------------|
--3----3--3--3--3--3--3-3-|--L-3-3--3-3-3-3-3-3-3-3-3-3-3-3-|


  E  E  E  S E  S E  E  E     E  E  E  S E  S E  E  E   
---------------------------|---------------------------|
---------------------------|------------------------4--|
--3--3--3--3-3--3-2--3--5--|--2--2--2--2-2--2-0--2-----|
---------------------------|---------------------------|


  E  E  E  S E  S E  E  E     E  E  E  S E  S E  E  E   
---------------------------|---------------------------|
---------------------------|---------------------------|
---------------------------|---------------------------|
--0--0--0--0-3--3-0--3--5--|--7--3--3--3-5--5-3--2--3--|


  E  E  E  S E  S E  E  E     E  E  E  S E  S E  E  E   
---------------------------|---------------------------|
---------------------------|------------------------4--|
--3--3--3--3-3--3-2--3--5--|--2--2--2--2-2--2-0--2-----|
---------------------------|---------------------------|


  E  E  E  S E  S E  E  E     E  E  E  S E  S E  E  E   
---------------------------|---------------------------|
---------------------------|---------------------------|
---------------------------|---------------------------|
--0--0--0--0-3--3-0--3--5--|--3--3--3--3-5--5-3--2--3--|


  E  E  E  S E  S E  E  E     E  E  E  S E  S E  E  E   
---------------------------|---------------------------|
---------------------------|------------------------4--|
--3--3--3--3-3--3-2--3--5--|--2--2--2--2-2--2-0--2-----|
---------------------------|---------------------------|


  E  E  E  S E  S E  E  E     E  E  E  S E  S E  E  E   
---------------------------|---------------------------|
---------------------------|---------------------------|
---------------------------|---------------------------|
--0--0--0--0-3--3-0--3--5--|--7--3--3--3-5--5-3--2--3--|


  E  E  E  S E  S E  E  E     E  E  E  S E  S E  E  E   
---------------------------|---------------------------|
---------------------------|------------------------4--|
--3--3--3--3-3--3-2--3--5--|--2--2--2--2-2--2-0--2-----|
---------------------------|---------------------------|


  E  E  E  S E  S E  E  E     E  E  E  S E  S E  E  E   
---------------------------|---------------------------|
---------------------------|---------------------------|
---------------------------|---------------------------|
--0--0--0--0-3--3-0--3--5--|--3--3--3--3-5--5-3--2--3--|


  E  E  E  S E  S E  E  E     E  E  E  S E  S E  E  E   
---------------------------|---------------------------|
---------------------------|------------------------4--|
--3--3--3--3-3--3-2--3--5--|--2--2--2--2-2--2-0--2-----|
---------------------------|---------------------------|


  E  E  E  S E  S E  E  E     E  E  E  S E  S E  E  E   
---------------------------|---------------------------|
---------------------------|---------------------------|
---------------------------|---------------------------|
--0--0--0--0-3--3-0--3--5--|--7--3--3--3-5--5-3--2--3--|


  E  E  E  S E  S E  E  E     E  E  E  S E  S E  E  E   
---------------------------|---------------------------|
---------------------------|------------------------4--|
--3--3--3--3-3--3-2--3--5--|--2--2--2--2-2--2-0--2-----|
---------------------------|---------------------------|


  E  E  E  S E  S E  E  E     E  E  E  S E  S E  E  E   
---------------------------|---------------------------|
---------------------------|---------------------------|
---------------------------|---------------------------|
--0--0--0--0-3--3-0--3--5--|--3--3--3--3-5--5-3--2--3--|


  E  E  E  S E  S E  E  E     E  E  E  S E  S E  E  E   
---------------------------|---------------------------|
---------------------------|------------------------4--|
--3--3--3--3-3--3-2--3--5--|--2--2--2--2-2--2-0--2-----|
---------------------------|---------------------------|


  E  E  E  S E  S E  E  E     E  E  E  S E  S E  E  E   
---------------------------|---------------------------|
---------------------------|---------------------------|
---------------------------|---------------------------|
--0--0--0--0-3--3-0--3--5--|--7--3--3--3-5--5-3--2--3--|


  E  E  E  S E  S E  E  E     E  E  E  S E  S E  E  E   
---------------------------|---------------------------|
---------------------------|------------------------4--|
--3--3--3--3-3--3-2--3--5--|--2--2--2--2-2--2-0--2-----|
---------------------------|---------------------------|


  E  E  E  S E  S E  E  E     E  E  E  S E  S E  E  E    
---------------------------|---------------------------||
---------------------------|---------------------------||
---------------------------|---------------------------||
--0--0--0--0-3--3-0--3--5--|--3--3--3--3-5--5-3--2--3--||




Duration Legend
---------------
W - whole
H - half
Q - quarter
E - 8th
S - 16th
T - 32nd
X - 64th
. - note dotted
|-n-|  - n-tuplets


Tablature Legend
----------------
L - tied note
x - dead note
g - grace note
(n) - ghost note
> - accentuded note
NH - natural harmonic
AH - artificial harmonic
TH - tapped harmonic
SH - semi harmonic
PH - pitch harmonic
h - hammer on
p - pull off
b - bend
br - bendRelease
pb - preBend
pbr - preBendRelease
brb - bendReleaseBend
\n/ - tremolo bar dip
\n - tremolo bar dive
-/n - tremolo bar Release up
/n\ - tremolo bar inverted dip
/n - tremolo bar return
-\n - tremolo bar Release down
S - shift slide
s - legato slide
/ -  slide into from below or out of upwards
\ -  slide into from above or out of downwards
~ - vibrato
W - wide vibrato
tr - trill
TP - tremolo picking
T - tapping
S - slap
P - pop
< - fade in
^ - brush up
v - brush down





Comments


Popular Gazette tabs & chords
Cassis Bass Tabs
Juuyon Sai No Knife Bass Tabs
Juuyon Sai No Knife 2 Bass Tabs
Mrd Ride With The Rockers 2 Bass Tabs
Shiver Bass Tabs
Silly God Disco Chords
Cassis Tabs
Hanakotoba Tabs
Without A Trace Tabs
Shiver Ukulele


Song lyrics



↑ Back to top | Tablatures and chords are parodies/interpretations of the original songs. You may use it for private study, scholarship, research or language learning purposes only
© 2014 AZChords.com Contact us | Privacy policy | DMCA | Add/correct tabs | Request tabs | Top 50 tabs