» » »

Mrd Ride With The Rockers Bass tabs (ver.1)

Artists:  A B C D E F G H I J K L M N O P Q R S T U V W X Y Z # 

Mrd Ride With The Rockers Bass tabs (ver.1)

Gazette
Rating:
0/5 (0 votes)

Hard to play? Try these video lessons and learn fast.
                Standard Tuning , Hope you like it ;) First Tab so don't go too hard on me : S

Main Verse: (It's where Reita ties with Kai in the MRD concert)
G|-------------------------|------------------------------------|
D|-------------2-----------|---------3--------------------------|
A|---------3---------------|-------------2---0------------------|
E|----33-----------345-----|----33---------------0--------------|

G|--------------------------|
D|-------------2------------|
A|---------3----------------|
E|----33-----------345~-----| - ( Kai drum filler thing)

G|--------------------------------|
D|--------3-----------------------|
A|-----------3--------------------|  x2
E|---33----------345--------------|

Singing Part :

G|-----------------------------66--|
D|------------------------77-------|
A|--------------55-----------------|  x4
E|----33---------------------------|

Hope you like it : )

KiedisBear
            
Hard to play? Try these video lessons and learn fast. | Correct




comments powered by Disqus
↑ Back to top | Tablatures and chords are parodies/interpretations of the original songs. You may use it for private study, scholarship, research or language learning purposes only