» » »

Dln Tabs (ver.2)

Artists:  A B C D E F G H I J K L M N O P Q R S T U V W X Y Z # 

Dln Tabs (ver.2)

Gazette
Rating:
5/5 (1 vote)

Tabs too difficult? Try these video lessons and learn fast.
                Hello, this is my second tab. xD

This is Uruha's (Lead Guitarists) part in D.L.N

You'd have to hear what it sounds like, but each section lasts for
four beats.. If that helps any. xD;;

I hope you like it.

/ - Slide up
x - Mute
\ - Slide down
^ - Upstroke
> - Hold/Let ring
~ - Vibrato
* - Pull way down on the string


Pause for 16 beats.

|-------------------------------|
|-------------------------------|
|-------0------0--------0-------|
|---4------4--------4-------4---|       x2
|-----2------2----2---2---2---2-|
|-0-----------------------------|

|-------------------------------|------------------------------|
|-------------------------------|------------------------------|
|-------0------0--------0-------|-------0----------------0-----|
|---4------4--------4-------4---|---4------4------4--------4---|
|-3---3------3----3---3---3---3-|-----3------3------2-0------0-|
|-------------------------------|-2------------3---------------|

|-------------------------------|
|-------------------------------|
|-------0------0--------0-------|
|---4------4--------4-------4---|       x2
|-----2------2----2---2---2---2-|
|-0-----------------------------|

|-------------------------------|------------------------------|
|-------------------------------|------------------------------|
|-------0------0--------0-------|-------0----------------0-----|
|---4------4--------4-------4---|---4------4------4--------4---|
|-3---3------3----3---3---3---3-|-----3------3------2-0------0-|
|-------------------------------|-2------------3---------------|

|-----------------------|
|-----------------------|
|-----------------0-----|
|---------4-------------|
|------2----------------|
|--0--------------------|

Pause for 4 beats.

|---------------0-------|------------------|-------------------|
|-----------------3-----|------------------|-------------------|
|----------0-0----------|-----0------------|-----------------0-|
|------4----------------|---4--------4-----|---------4---------|
|-3---------------------|--------------0---|------2------------|
|-----------------------|-2------3-------2-|--0----------------|

|---------------0-------|------------------|
|-----------------3-----|------------------|
|----------0-0----------|-----0------------|
|------4----------------|---4--------4-----|
|-3---------------------|--------------0---|
|-----------------------|-2------3-------2-|

|-------------------------0-------|-------------------------2-------|
|---------3-----------3-----3-----|---------3-----------3-----3-----|
|-----0-----0-------0---0-----0---|-----2-----2-------2---2-----2---|
|---4---4-----4---4-------------4-|---4---4-----4---4-------------4-|
|-3-------------3-----------------|-2-------------2-----------------|
|---------------------------------|---------------------------------|

|-------------------------0-------|-------------------------0-------|
|---------3-----------3-----3-----|---------3-----------3-----3-----|
|-----0-----0-------0---0-----0---|-----0-----0-------0---0-----0---|
|---4---4-----4---4-------------4-|---4---4-----4---4-------------4-|
|---------------------------------|-2-------------2-----------------|
|-0-------------0-----------------|---------------------------------|

|-------------------------0-------|-------------------------2-------|
|---------3-----------3-----3-----|---------3-----------3-----3-----|
|-----0-----0-------0---0-----0---|-----2-----2-------2---2-----2---|
|---4---4-----4---4-------------4-|---4---4-----4---4-------------4-|
|-3-------------3-----------------|-2-------------2-----------------|
|---------------------------------|---------------------------------|

|-------------------------0-------|---------------------|
|---------3-----------3-----3-----|---------3-----------|
|-----0-----0-------0---0-----0---|-----0-----0---------|
|---4---4-----4---4-------------4-|---4---4-----4-------|
|---------------------------------|---------------------|
|-0-------------0-----------------|-0-------------0-----|

|-----------------------|
|-----------------------|
|-----------------0-----|
|---------4-------------|
|------2----------------|
|--0--------------------|

Pause for 4 beats.

|---------------0-------|------------------|-------------------|
|-----------------3-----|------------------|-------------------|
|----------0-0----------|-----0------------|-----------------0-|
|------4----------------|---4--------4-----|---------4---------|
|-3---------------------|--------------0---|------2------------|
|-----------------------|-2------3-------2-|--0----------------|

Pause for 4 beats.

|---------------0-------|------------------|
|-----------------3-----|------------------|
|----------0-0----------|-----0------------|
|------4----------------|---4--------4-----|
|-3---------------------|--------------0---|
|-----------------------|-2------3-------2-|

|----------------------------------|
|--3-------3-------3-------3-------|
|------4-------4-------4-------4---|
|----5---5---5---5---5---5---5---5-|        x3
|----------------------------------|
|----------------------------------|

|----------------------------------|
|--2-------2-------2-------2-------|
|------3-------3-------3-------3---|
|----4---4---4---4---4---4---4---4-|
|----------------------------------|
|----------------------------------|


|-------------------------0-------|-------------------------2-------|
|---------3-----------3-----3-----|---------3-----------3-----3-----|
|-----0-----0-------0---0-----0---|-----2-----2-------2---2-----2---|
|---4---4-----4---4-------------4-|---4---4-----4---4-------------4-|
|-3-------------3-----------------|-2-------------2-----------------|
|---------------------------------|---------------------------------|
                                                                                         
                                                              x3
|-------------------------0-------|-------------------------0-------|
|---------3-----------3-----3-----|---------3-----------3-----3-----|
|-----0-----0-------0---0-----0---|-----0-----0-------0---0-----0---|
|---4---4-----4---4-------------4-|---4---4-----4---4-------------4-|
|---------------------------------|-2-------------2-----------------|
|-0-------------0-----------------|---------------------------------|


|-------------------------0-------|-------------------------2-------|
|---------3-----------3-----3-----|---------3-----------3-----3-----|
|-----0-----0-------0---0-----0---|-----2-----2-------2---2-----2---|
|---4---4-----4---4-------------4-|---4---4-----4---4-------------4-|
|-3-------------3-----------------|-2-------------2-----------------|
|---------------------------------|---------------------------------|

|-------------------------0-------|-------|
|---------3-----------3-----3-----|-------|
|-----0-----0-------0---0-----0---|-------|
|---4---4-----4---4-------------4-|--4----|
|---------------------------------|--2----|
|-0-------------0-----------------|-------|


Pause for 28 beats while Reita (Bassist) does his solo.

|------------|--^0>------|--0>-----|--0>---------|
|------------|--^0>------|--3>-----|--3>---------|
|------------|--^0>------|--0>-----|--0>---------|
|------------|--^2>------|--4>-----|--4>---------|
|------------|--^2>------|--2>-----|--3>---------|
|--------/x\-|--^0>------|---------|--------/x\--|

|-------------------------------|--^0>------|--0>-----|--0>---------|
|------------------3------------|--^0>------|--3>-----|--3>---------|
|--------------------------5-4~-|--^0>------|--0>-----|--0>---------|
|-------4*-(4)-4/5---4-5-4------|--^2>------|--4>-----|--4>---------|
|-------------------------------|--^2>------|--2>-----|--3>---------|
|-3-0-0-------------------------|--^0>------|---------|--------/x\--|

|-----------------------10------10-10-10-10-|
|-------------------8---10------10-10-10-10-|
|--------7*-(7)---------7----x--11-11-11-11-|
|--5-4----------7/9-----7-------12-12-12-12-|
|-------------------------------------------|
|-------------------------------------------|

Pause for 4 beats.

|-------------------------0-------|-------------------------2-------|
|---------3-----------3-----3-----|---------3-----------3-----3-----|
|-----0-----0-------0---0-----0---|-----2-----2-------2---2-----2---|
|---4---4-----4---4-------------4-|---4---4-----4---4-------------4-|
|-3-------------3-----------------|-2-------------2-----------------|
|---------------------------------|---------------------------------|
                                                                                         
                                                                                        
                                                x11
|-------------------------0-------|-------------------------0-------|
|---------3-----------3-----3-----|---------3-----------3-----3-----|
|-----0-----0-------0---0-----0---|-----0-----0-------0---0-----0---|
|---4---4-----4---4-------------4-|---4---4-----4---4-------------4-|
|---------------------------------|-2-------------2-----------------|
|-0-------------0-----------------|---------------------------------|


|-------------------------0-------|-------------------------2-------|
|---------3-----------3-----3-----|---------3-----------3-----3-----|
|-----0-----0-------0---0-----0---|-----2-----2-------2---2-----2---|
|---4---4-----4---4-------------4-|---4---4-----4---4-------------4-|
|-3-------------3-----------------|-2-------------2-----------------|
|---------------------------------|---------------------------------|


|--0>------|
|--0>------|
|--0>------| (Hold for 12 beats, it would have echoed out by then, but at 12,
|--2>------|  the song ends. ^ ^)
|--2>------|
|--0>------|

Well, thats it. I hope this at least helps somewhat, I know It's hard to read sometimes.

Ta~ (All this written by Taka_Manako)
            
Tabs too difficult? Try these video lessons and learn fast.


comments powered by Disqus
↑ Back to top | Tablatures and chords are parodies/interpretations of the original songs. You may use it for private study, scholarship, research or language learning purposes only