>
 >
Baretta

Baretta Bass Tabs

Gazette - Baretta chords, tabs, tablatures, lyrics

Guitar lessons | Add/correct | Request | Top 50 tabs Artists:  A B C D E F G H I J K L M N O P Q R S T U V W X Y Z 0-9

Baretta Bass Tabs – Gazette

CD, Sheet music, Poster

Do you like Baretta? Share with your friends now
Bass Tabs
Woot Reita!!! This one is a bit harder than Cassis :P

Barreta - The GazettE

Starts after the first long verse... when it gets louder lol.

Tune down one step


  W                   W                   H.           Q      
F|-------------------|-------------------|---------------------|
C|-------------------|-------------------|---------------------|
G|-------------------|-------------------|---------------2/----|
D|--0----------------|--L----------------|--L------------------|


   E.   S  E   E  S  S  E   E   E     E  E  S S E  E  S S S S E   
-----------------------------------|-----------------------------|
-----------------------------------|-----------------------------|
--10---10-10--10--L-10-10--10--10--|-----3--L-3-3--3--3-3-L-3-3--|
-----------------------------------|-----------------------------|


  E  S S S S E  E  S   S E  E     E  S S S S E  E  S S S S E   
-------------------------------|------------------------------|
-------------------------------|------------------------------|
--0--0-0-L-0-0--0--0-/10-L--9--|------------------------------|
-------------------------------|--0--0-0-L-0-0--0--0-0-L-0-0--|


  E  S S E  E  E  E  E  E     E  S S S S E  E  S S S S E   
---------------------------|------------------------------|
---------------------------|------------------------------|
------------------------2--|--3--3-3-L-3-3--3--3-3-L-3-3--|
--3--3-0-L--2--3--0--3-----|------------------------------|


  E  S S S S E  E  S   S E  E     E  S S S S E  E  S S S S E   
-------------------------------|------------------------------|
-------------------------------|------------------------------|
--0--0-0-L-0-0--0--0-/10-L--9--|------------------------------|
-------------------------------|--0--0-0-L-0-0--0--0-0-L-0-0--|


  E  S S E  E  E  E  E  E     E  E  S S E  E  S S S S E   
---------------------------|-----------------------------|
---------------------------|-----------------------------|
------------------------2--|-----3--L-3-3--3--3-3-L-3-3--|
--3--3-0-L--2--3--0--3-----|-----------------------------|


  E  S S S S E  E  S   S E  E     E  S S S S E  E  S S S S E   
-------------------------------|------------------------------|
-------------------------------|------------------------------|
--0--0-0-L-0-0--0--0-/10-L--9--|------------------------------|
-------------------------------|--0--0-0-L-0-0--0--0-0-L-0-0--|


  E  S S E  E  E  E  E  E     E  E  S S E  E  S S S S E   
---------------------------|-----------------------------|
---------------------------|-----------------------------|
------------------------2--|-----3--L-3-3--3--3-3-L-3-3--|
--3--3-0-L--2--3--0--3-----|-----------------------------|


  E  S S S S E  E  S   S E  E     S S E  E  E  S S E  E  E   
-------------------------------|----------------------------|
-------------------------------|----------------------------|
--0--0-0-L-0-0--0--0-/10-L--9--|----------------------------|
-------------------------------|--0---0--L--0--3---3--L--3--|


  S S E  E  E  E  E  Q       W                   H        E  E  S E.   
--------------------------|-------------------|-----------------------|
--------------------------|-------------------|-----------------------|
--0---2--L----------------|-------------------|-----------------------|
------------2--3-----2----|--0----------------|--0--------L--0--3-3---|


  W                    H        E.  S Q        E.  S Q    E  E  S E.   
--------------------|-----------------------|-------------------------|
--------------------|-----------------------|-------------------------|
--------------------|--7--------7-----------|--3---3---------3----3---|
--0/----------------|---------------7-L\----|-------------------------|


  E.  S Q    E  E  S E.     E.  S Q    E  E  S E.     E.  S Q    E  E  S E.   
-------------------------|-------------------------|-------------------------|
-------------------------|-------------------------|-------------------------|
--3---3---------3----3---|--2---2---------2----2---|--2---2---------2----2---|
-------------------------|-------------------------|-------------------------|


  E.  S Q    E  E  S E.     E.  S Q    E  E  S E.     E.  S Q    E  E  S E.   
-------------------------|-------------------------|-------------------------|
-------------------------|-------------------------|-------------------------|
-------------------------|-------------------------|-------------------------|
--0---0---------0----0---|--0---0---------0----0---|--3---3---------3----3---|


  E.  S Q    E  E  S E.     E.  S Q    E  E  S E.     E.  S Q    E  E  S E.   
-------------------------|-------------------------|-------------------------|
-------------------------|-------------------------|-------------------------|
---------------------2---|--3---3---------3----3---|--3---3---------3----3---|
--3---3---------3--------|-------------------------|-------------------------|


  E.  S Q    E  E  S E.     E.  S Q    E  E  S E.     E.  S Q    E  E  S E.   
-------------------------|-------------------------|-------------------------|
-------------------------|-------------------------|-------------------------|
--2---2---------2----2---|--2---2---------2----2---|-------------------------|
-------------------------|-------------------------|--0---0---------0----0---|


  E.  S Q    E  E  S E.     E.  S Q    E  E  S E.     E.  S Q    E  E  S E.   
-------------------------|-------------------------|-------------------------|
-------------------------|-------------------------|-------------------------|
-------------------------|-------------------------|----------------2----2---|
--0---0---------0----0---|--0---0---------0----0---|--0---0------------------|


  E.  S Q    E  E  S E.     E.  S Q    E  E  S E.     E.  S Q    E  E  S E.   
-------------------------|-------------------------|-------------------------|
-------------------------|-------------------------|-------------------------|
--3---3---------3----3---|--3---3---------3----3---|--2---2---------2----2---|
-------------------------|-------------------------|-------------------------|


  E.  S Q    E  E  S E.     E.  S Q    E  E  S E.     E.  S Q    E  E  S E.   
-------------------------|-------------------------|-------------------------|
-------------------------|-------------------------|-------------------------|
--2---2---------2----2---|-------------------------|-------------------------|
-------------------------|--0---0---------0----0---|--0---0---------0----0---|


  E.  S Q    E  E  S E.     E.  S Q    E  E  S E.     E.  S Q    E  E  S E.   
-------------------------|-------------------------|-------------------------|
-------------------------|-------------------------|-------------------------|
-------------------------|---------------------2---|--3---3---------3----3---|
--3---3---------3----3---|--3---3---------3--------|-------------------------|


  E.  S Q    E  E  S E.     E.  S Q    E  E  S E.     E.  S Q    E  E  S E.   
-------------------------|-------------------------|-------------------------|
-------------------------|-------------------------|-------------------------|
--3---3---------3----3---|--2---2---------2----2---|--2---2---------2----2---|
-------------------------|-------------------------|-------------------------|


  E.  S Q    E  E  S E.     E.  S Q    E  E  S E.     W                 
-------------------------|-------------------------|-------------------|
-------------------------|-------------------------|-------------------|
-------------------------|-------------------------|-------------------|
--0---0---------0----0---|--0---0---------0----0---|--0----------------|


  E.  S Q    E  E  E  E     E  S S S S E  E  S S S S E   
-------------------------|------------------------------|
-------------------------|------------------------------|
------7-L----7--5--------|------------------------------|
--0----------------3--2--|--0--0-0-L-0-0--0--0-0-L-0-0--|


  E  S S S S E   E   S S S S E     E  S S S S E  E  S S S S E   
--------------------------------|------------------------------|
--------------------------------|------------------------------|
-------7-L-7-9--10--10-9-L-9-2--|--3--3-3-L-3-3--3--3-3-L-3-3--|
--0--0--------------------------|------------------------------|


  E  S S S S E  E  S S S S E     E  S S S S E  E  S S S S E   
------------------------------|------------------------------|
--5--7-7-L-7-7--5--5-4-L-4-4--|------------------------------|
------------------------------|------------------------------|
------------------------------|--3--3-3-L-3-3--3--3-3-L-3-3--|


  E  S S S S E  E  E  Q       E  S S S S E  E  S S E   E   
---------------------------|------------------------------|
----------------5--4-------|------------------------------|
----------------------5----|--2--2-2-L-2-2--2--2-2-L--/9--|
--3--3-2-L-3-3-------------|------------------------------|


  E  S S S S E  E  E  Q       E  E  S S E  E  S S S S E   
---------------------------|-----------------------------|
--9--9-9-L-9-9--9--9-------|-----------------------------|
----------------------9----|-----------------------------|
---------------------------|-----0--L-0-0--0--0-0-L-0-0--|


  E  S S S S E   E   S S S S E     E  S S S S E  E  S S S S E   
--------------------------------|------------------------------|
--------------------------------|------------------------------|
-------7-L-7-9--10--10-9-L-9----|------------------------------|
--0--0-----------------------7--|--8--8-8---8-8--8--8-8---8-8--|


  E  S S S S E  E  S S S S E     E  S S S S E  E  S S S S E   
------------------------------|------------------------------|
--5--7-7-L-7-7--5--5-4-L-4-4--|------------------------------|
------------------------------|------------------------------|
------------------------------|--3--3-3-L-3-3--3--3-3-L-3-3--|


  E  S S S S E  E  E  Q       S S E  E  E  S S E  E   E   
---------------------------|-----------------------------|
----------------5--4-------|-----------------------------|
----------------------5----|--2---2--L--2--2---2--L--/9--|
--3--3-3-L-3-3-------------|-----------------------------|


  E  S S S S E  E  S S E  S S    E  E  S S E  E  S S S S E   
------------------------------|-----------------------------|
--9--9-9-9-9-9--9--9-9-9--9-9-|-----------------------------|
------------------------------|-----3--L-3-3--3--3-3-L-3-3--|
------------------------------|-----------------------------|


  E  S S S S E  E  S   S E  E     E  S S S S E  E  S S S S E   
-------------------------------|------------------------------|
-------------------------------|------------------------------|
--0--0-0-L-0-0--0--0-/10-L--9--|------------------------------|
-------------------------------|--0--0-0-L-0-0--0--0-0-L-0-0--|


  E  S S E  E  E  E  E  E     E  S S S S E  E  S S S S E   
---------------------------|------------------------------|
---------------------------|------------------------------|
------------------------2--|--3--3-L-3-3-3--3--3-3-L-3-3--|
--3--3-0-L--2--3--0--3-----|------------------------------|


  E  S S S S E  E  S   S E  E     E  S S S S E  E  S S S S E   
-------------------------------|------------------------------|
-------------------------------|------------------------------|
--0--0-0-L-0-0--0--0-/10-L--9--|------------------------------|
-------------------------------|--0--0-0-L-0-0--0--0-0-L-0-0--|


  E  S S E  E  E  E  E  E     E  E  S S E  E  S S S S E   
---------------------------|-----------------------------|
---------------------------|-----------------------------|
------------------------2--|-----3--L-3-3--3--3-3-L-3-3--|
--3--3-0-L--2--3--0--3-----|-----------------------------|


  E  S S S S E  E  S   S E  E     E  S S S S E  E  S S S S E   
-------------------------------|------------------------------|
-------------------------------|------------------------------|
--0--0-0-L-0-0--0--0-/10-L--9--|------------------------------|
-------------------------------|--0--0-0-L-0-0--0--0-0-L-0-0--|


  E  S S E  E  E  E  E  E     E  S S S S E  E  S S S S E   
---------------------------|------------------------------|
---------------------------|------------------------------|
------------------------2--|--3--3-L-3-3-3--3--3-3-L-3-3--|
--3--3-0-L--2--3--0--3-----|------------------------------|


  E  S S S S E  E  S   S E  E     S S E  E  E  S S E  E  E   
-------------------------------|----------------------------|
-------------------------------|----------------------------|
--0--0-0-L-0-0--0--0-/10-L--9--|----------------------------|
-------------------------------|--0---0--L--0--3---3--L--3--|


  S S E  E  E  E  E  Q       S S S  S S E  S E  S S S S E   
--------------------------|--------------------------------|
--------------------------|--------------------------------|
--0---2--L----------------|------5h-7---5----3----2-L------|
------------2--3-----2----|--0-0------0----0----0-----x-3--|


  S S S S S E  S E  S S S S E     S S S  S S E  S E  S S S S E   
-------------------------------|--------------------------------|
-----------------7-------------|--------------------------------|
------5-7---5---------5-L-5-7--|------5h-7---5----3----2-L------|
--0-0-----0----0----0----------|--0-0------0----0----0-----x-3--|


  S S S S S S S S S S S S S S S S    S S S  S S E  S E  S S S S E   
----------------------------------|--------------------------------|
----------------------------------|--------------------------------|
----------------------------------|------5h-7---5----3----2-L------|
--0-0-3-3-5-5-6-6-6-6-6-5-5-5-3-3-|--0-0------0----0----0-----x-3--|


  S S S S S E  S E  S S S S E     S S S  S S E  S E  S S S S E   
-------------------------------|--------------------------------|
-----------------7-------------|--------------------------------|
------5-7---5---------5-L-5-7--|------5h-7---5----3----2-L------|
--0-0-----0----0----0----------|--0-0------0----0----0-----x-3--|


  S S S S S S S S S S S S S S S S    W                   H        E   Q.       
----------------------------------|-------------------|-----------------------|
----------------------------------|-------------------|-----------------------|
----------------------------------|-------------------|-----------------------|
--0-0-3-3-3-3-5-5-5-5-6-6-5-5-3-0-|--0----------------|--L--------L--12\------|


            E  E  S S E  E  S S S S E     E  S S S S E  E  S S S S E   
----|----|-----------------------------|------------------------------|
----|----|-----------------------------|------------------------------|
----|----|-----------------------------|------------------------------|
----|----|-----0--L-0-0--0--0-0-L-0-0--|--3--3-3-L-3-3--3--3-3-L-3-3--|


  E  S S S S E  E  S S S S E     E  S S S S E  E  S S S S E   
------------------------------|------------------------------|
------------------------------|------------------------------|
--0--0-0-L-0-0--0--0-0-L-0-0--|--2--2-2-L-2-2--2--2-2-L-2-2--|
------------------------------|------------------------------|


  E  S S S S E  E  S S S S E     E  S S S S E  E  S S S S E   
------------------------------|------------------------------|
------------------------------|------------------------------|
------------------------------|------------------------------|
--0--0-0-L-0-0--0--0-0-L-0-0--|--3--3-3-L-3-3--3--3-3-L-3-3--|


  E  S S S S E  E  S S S S E     S E  S E  S S S S S S S S S S  
------------------------------|--------------------------------|
------------------------------|--------------------------------|
--0--0-0-L-0-0--0--0-0-L-0-0--|--2----2----2---2-2-2-2-2-2-2-2-|
------------------------------|--------------------------------|


  E  E  S S E  E  S S S S E     E  S S S S E  E  S   S E  E   
-----------------------------|-------------------------------|
-----------------------------|-------------------------------|
-----3--L-3-3--3--3-3-L-3-3--|--0--0-0-L-0-0--0--0-/10-L--9--|
-----------------------------|-------------------------------|


  E  S S S S E  E  S S S S E     E  S S S S E  E  S S S S E   
------------------------------|------------------------------|
------------------------------|------------------------------|
------------------------------|------------------------------|
--0--0-0-L-0-0--0--0-0-L-0-0--|--3--3-3-L-3-3--3--3-3-L-3-3--|


  E  S S S S E  E  S S S S E     E  S S S S E  E  S S S S E   
------------------------------|------------------------------|
------------------------------|------------------------------|
--0--0-0-L-0-0--0--0-0-L-0-0--|------------------------------|
------------------------------|--2--2-2-L-2-2--2--2-2-L-2-2--|


  S S E  E  E  S S E  E  E     S S E  E  E  E  E  Q     
----------------------------|--------------------------|
----------------------------|--------------------------|
----------------------------|--0---2--L----------------|
--0---0--L--0--3---3--L--3--|------------2--3-----2----|


  E  E  S S E  E  S S S S E     E  S S S S E  E  S S S S E   
-----------------------------|------------------------------|
-----------------------------|------------------------------|
-----------------------------|------------------------------|
-----3--L-3-3--3--3-3-L-3-3--|--3--3-3-L-3-3--3--3-3-L-3-3--|


  E  S S S S E  E  S S S S E     E  S S E  E  E.  S Q     
------------------------------|--------------------------|
------------------------------|-------5----4--5----------|
--2--2-2-L-2-2--2--2-2-L-2-2--|--2--2-------------6-L----|
------------------------------|--------------------------|


  E  S S S S E  E  S S S S E     E  S S S S E  E  S S S S E   
------------------------------|------------------------------|
------------------------------|------------------------------|
------------------------------|------------------------------|
--0--0-0-L-0-0--0--0-0-L-0-0--|--0--0-0-L-0-0--0--0-0-L-0-0--|


  E  S S S S E  E  S S S S E     E  S S S S E  E  S S S S E   
------------------------------|------------------------------|
------------------------------|------------------------------|
--3--3-3-L-3-3--3--3-3-L-3-3--|--3--3-3-L-3-3--3--3-3-L-3-3--|
------------------------------|------------------------------|


  E  E  S S E  E  S S S S E     E  S S S S E  E  S S S S E   
-----------------------------|------------------------------|
-----------------------------|------------------------------|
-----------------------------|------------------------------|
-----3--L-3-3--3--3-3-L-3-3--|--3--3-3-L-3-3--3--3-3-L-3-3--|


  E  S S S S E  E  S S S S E     E  S S E  E  E.  S Q     
------------------------------|--------------------------|
------------------------------|-------5----4--5----------|
--2--2-2-L-2-2--2--2-2-L-2-2--|--2--2-------------6-L----|
------------------------------|--------------------------|


  E  S S S S E  E  S S S S E     E  S S S S E  E  S S S S E   
------------------------------|------------------------------|
------------------------------|------------------------------|
---------------------7-L-7-7--|--5--5-5-L-5-5--5--5-5-L-5-5--|
--0--0-0-L-0-0--0--0----------|------------------------------|


  S S E  E  E  S S E  E  E       E   S  S S  S  E   E   S  S S  S  S  S  
-----------------------------|------------------------------------------|
-----------------------------|------------------------------------------|
--3---3--L--3--3---3--L--3/--|--15--15-15-L-15-15--15--15-15-L-15-15-15-|
-----------------------------|------------------------------------------|


  E  S S S S E  E  S S S S E     E  S S S S E   E   S S S S E   
------------------------------|--------------------------------|
------------------------------|--------------------------------|
------------------------------|-------7-L-7-9--10--10-9-L-9----|
--0--0-0-L-0-0--0--0-0-L-0-0--|--0--0-----------------------7--|


  E  S S S S E  E  S S S S E     E  S S S S E  E  S S S S E   
------------------------------|------------------------------|
------------------------------|--5--7-7-L-7-7--5--5-4-L-4-4--|
------------------------------|------------------------------|
--8--8-8-L-8-8--8--8-8-L-8-8--|------------------------------|


  E  S S S S E  E  S S S S E     E  S S S S E  E  E  Q     
------------------------------|---------------------------|
------------------------------|----------------5--4-------|
------------------------------|----------------------5----|
--3--3-3-L-3-3--3--3-3-L-3-3--|--3--3-2-L-3-3-------------|


  E  S S S S E  E  S S E   E     E  S S S S E  E  E  Q     
------------------------------|---------------------------|
------------------------------|--9--9-9-L-9-9--9--9-------|
--2--2-2-L-2-2--2--2-2-L--/9--|----------------------9----|
------------------------------|---------------------------|


  E  E  S S E  E  S S S S E     E  S S S S E   E   S S S S E   
-----------------------------|--------------------------------|
-----------------------------|--------------------------------|
-----------------------------|-------7-L-7-9--10--10-9-L-9----|
-----0--L-0-0--0--0-0-L-0-0--|--0--0-----------------------7--|


  E  S S S S E  E  S S S S E     E  S S S S E  E  S S S S E   
------------------------------|------------------------------|
------------------------------|--5--7-7-L-7-7--5--5-4-L-4-4--|
------------------------------|------------------------------|
--8--8-8---8-8--8--8-8---8-8--|------------------------------|


  E  S S S S E  E  S S S S E     E  S S S S E  E  E  Q     
------------------------------|---------------------------|
------------------------------|----------------5--4-------|
------------------------------|----------------------5----|
--3--3-3-L-3-3--3--3-3-L-3-3--|--3--3-3-L-3-3-------------|


  S S E  E  E  S S E  E   E     E  S S S S E  E  S S S S E   
-----------------------------|------------------------------|
-----------------------------|--9--9-9-9-9-9--9--9-9-9-9-9--|
--2---2--L--2--2---2--L--/9--|------------------------------|
-----------------------------|------------------------------|


  W                   W                   W                 
-------------------|-------------------|-------------------|
-------------------|-------------------|-------------------|
--3----------------|--0----------------|-------------------|
-------------------|-------------------|--0----------------|


  H        E  E  E  E     H           Q    Q       E  Q    E   Q     Q     
-----------------------|------------------------|-------------------------|
-----------------------|------------------------|-------------------------|
--------------2--------|--3--------3g10----9----|--0--0----7s--9----10----|
--3--------L-----3--2--|------------------------|-------------------------|


  Q    E  E  E  E  Q       Q    S S S S E  E  E  E   
------------------------|---------------------------|
------------------------|---------------------------|
------------------------|------------------------2--|
--0----0--0--3--0--0----|--3----3-3-3-3-3--2--3-----|


  E  E  S S E  E  S S S S E     E  S S S S E  E  S   S E  E   
-----------------------------|-------------------------------|
-----------------------------|-------------------------------|
-----3--L-3-3--3--3-3-L-3-3--|--0--0-0-L-0-0--0--0-/10-L--9--|
-----------------------------|-------------------------------|


  E  S S S S E  E  S S S S E     E  S S E  E  E  E  E  E   
------------------------------|---------------------------|
------------------------------|---------------------------|
------------------------------|------------------------2--|
--0--0-0-L-0-0--0--0-0-L-0-0--|--3--3-0-L--2--3--0--3-----|


  E  S S S S E  E  S S S S E     E  S S S S E  E  S   S E  E   
------------------------------|-------------------------------|
------------------------------|-------------------------------|
--3--3-L-3-3-3--3--3-3-L-3-3--|--0--0-0-L-0-0--0--0-/10-L--9--|
------------------------------|-------------------------------|


  E  S S S S E  E  S S S S E     E  S S E  E  E  E  E  E   
------------------------------|---------------------------|
------------------------------|---------------------------|
------------------------------|------------------------2--|
--0--0-0-L-0-0--0--0-0-L-0-0--|--3--3-0-L--2--3--0--3-----|


  E  E  S S E  E  S S S S E     E  S S S S E  E  S   S E  E   
-----------------------------|-------------------------------|
-----------------------------|-------------------------------|
-----3--L-3-3--3--3-3-L-3-3--|--0--0-0-L-0-0--0--0-/10-L--9--|
-----------------------------|-------------------------------|


  E  S S S S E  E  S S S S E     E  S S E  E  E  E  E  E   
------------------------------|---------------------------|
------------------------------|---------------------------|
------------------------------|------------------------2--|
--0--0-0-L-0-0--0--0-0-L-0-0--|--3--3-0-L--2--3--0--3-----|


  E  S S S S E  E  S S S S E     E  S S S S E  E  S   S E  E   
------------------------------|-------------------------------|
------------------------------|-------------------------------|
--3--3-L-3-3-3--3--3-3-L-3-3--|--0--0-0-L-0-0--0--0-/10-L--9--|
------------------------------|-------------------------------|


  S S E  E  E  S S E  E  E     S S E  E  E  Q    Q       W                 
----------------------------|-------------------------|-------------------|
----------------------------|-------------------------|-------------------|
----------------------------|--0---2--L---------------|-------------------|
--0---0--L--0--3---3--L--3--|------------2--3----3----|--0----------------|


  W                   W                   H.           Q      
-------------------|-------------------|---------------------|
-------------------|-------------------|---------------------|
-------------------|-------------------|---------------2/----|
--L----------------|--L----------------|--L------------------|


  W                   W                   W                   W                 
-------------------|-------------------|-------------------|-------------------|
-------------------|-------------------|-------------------|-------------------|
--7----------------|--L----------------|--L----------------|--L----------------|
-------------------|-------------------|-------------------|-------------------|





Comments


Popular Gazette tabs & chords
Filth In The Beauty Bass Tabs
Mrd Ride With The Rockers Bass Tabs
Cassis Chords
Shiver Chords
Wakaremichi Chords
Cassis 1 Tabs
Dln Tabs
Dln 1 Tabs
Guren Tabs
Silly God Disco Ukulele


Song lyrics



↑ Back to top | Tablatures and chords are parodies/interpretations of the original songs. You may use it for private study, scholarship, research or language learning purposes only
© 2014 AZChords.com Contact us | Privacy policy | DMCA | Add/correct tabs | Request tabs | Top 50 tabs