>
 >
Aint No Mountain High Enough

Aint No Mountain High Enough Bass Tabs

Gaye Marvin - Aint No Mountain High Enough chords, tabs, tablatures, lyrics

Guitar lessons | Add/correct | Request | Top 50 tabs Artists:  A B C D E F G H I J K L M N O P Q R S T U V W X Y Z 0-9

Aint No Mountain High Enough Bass Tabs – Gaye Marvin

CD, Sheet music, Poster

Do you like Aint No Mountain High Enough? Share with your friends now
Bass Tabs
Marvin-Gaye-Ain't No Mountain High Enough.txt


It seems, my former posting of this tune, had a 'minor' flaw in it. If 
you weren't comfortably familiar with the song and / or didn't "listen" 
to what the bass line was doing, by the time the first chorus came up, 
you could very easily be atleast two measures behind! For some, a 
bewildering dilemma;^&

Having said that; here's an updated / revised version. This slightly 
modified, and perhaps more accurate transcription, should be clear 
enough for even an elementary or intermediate level player to follow 
along and be 'on time' within a short period. Again, I suggest listening 
to the song a 'few' times and follow along without playing. Then, take it 
a verse and a chorus at a time...

A short word of Thanks! to Sean, one of my bass students, for pointing 
up the 'transcription' flaw and its potential for becoming a frustrating 
and completely confusing experience... well, if you could learn to read 
music;^)
											
Michael s.     

 
	Intro 
G|.--------------------|------------4---------|----------.|
D|.---7*----7-6*---6*--|--6-5*--5-4-----2*----|--4--5--6-.|
A|.--------------------|--------------2-------|----------.|
E|.--------------------|----------------------|----------.|

	Verse 1 & 2			   |1st Time_____ |2nd Time________	
G|.------------------------|--------4------|-------------.|----------------|
D|.---7*---7-6*--6--6--6--6|5*--5-4-----2*-|-2-2-4--5--6-.|-5--6---3-------|
A|.------7-----------------|----------2----|-------------.|----------------|
E|.------------------------|---------------|-------------.|-----------1--1-|
	
	Chorus 1 & 2
G|---------------------------------|----------------------------------|
D|----------------------------0-2-4|5---5-1-2--2-3-4---------0-2-4-5--|
A|--0-----2------------0-1-2-------|--5----------------0-1-2----------|
E|----3-----3-0--0-1-2-------------|-----------------2----------------|

G|--------------2-3-4-|----------------------|---------------|
D|-5-4-2--2-3-4-------|--0-1-2---2---2-2-4-5-|---5---5---5-6-|
A|--------------------|2-------2---2---------|-5---5---5-----|
E|--------------------|----------------------|---------------|

	Bridge
G|---------------|-----------------------------|----------------------------|
D|--------7-7----|---------7-7------------7-7--|---------------------4----4-|
A|------7-----7--|-----7-7-----7------7-7-----7|-------------------3----3---|
E|-5-5----------5|5-5------------5-5-----------|3-3-3-3-3-3-3-0-2-----------|

G|------4---------|---------------------------|--------------------------|
D|----4----4------|-----5----2--------5-------|---7-7---7---------7------|
A|-2---------2--0-|---5----5---5----5---5-----|----------7-------7---7---|
E|----------------|3-------------3--------3-4-|5---------------5---5-----|

G|--------------------------|------------
D|----8-8---8---8-8---------|------------
A|-----------8-------8----8-|------------
E|-6--------------------6---|------------

	



Verse 3
G|----------------------|-------5------------------|
D|--8*---8-7--7--7--7--7|6--6-5-----3----3-5--6--7-|
A|----------------------|---------3----------------|
E|----------------------|--------------------------|


G|-----------------------------5-----------|
D|-8*---8-7--7--7--7--7-6--6-5-----3--4-5--|
A|-------------------------------3---------|
E|----------------------------------------3|

	Last Chorus
G|--------------------------------------------|
D|-----------------------------------1-3--4--5|
A|-----3--------1---1-2-3--3-1-----3----------|
E|--5----0-1--2---3------------5-4------------|
									REPEAT TO END FADE:
G|--4-5--5-3---1--1-------------------------------------------------------| 
D|-----------1------5-3--3-4-5------------1-3---3---3-3-5-6----6---6---3-5|
A|-------------------------------1-2-3--3-----3---3----------6---6---6----|
E|-----------------------------3------------------------------------------|


NOTE: 
	|: :| = repeat measure/s
	*     = let note ring through





Comments


Popular Gaye Marvin tabs & chords
Abraham Martin And John Chords
Got To Give It Up Chords
I Want You Chords
It Takes Two Chords
It Takes Two Tabs
Lets Get It On Tabs
Lets Get It On 1 Tabs
Mercy Mercy Me Tabs
Mercy Mercy Me 1 Tabs
Whats Going On Tabs


Song lyrics



↑ Back to top | Tablatures and chords are parodies/interpretations of the original songs. You may use it for private study, scholarship, research or language learning purposes only
© 2014 AZChords.com Contact us | Privacy policy | DMCA | Add/correct tabs | Request tabs | Top 50 tabs