>
 >
The Current

The Current Guitar Tabs

Gavin Rossdale - The Current chords, tabs, tablatures, lyrics

Guitar lessons | Add/correct | Request | Top 50 tabs Artists:  A B C D E F G H I J K L M N O P Q R S T U V W X Y Z 0-9

The Current Guitar Tabs – Gavin Rossdale

CD, Sheet music, Poster

Do you like The Current? Share with your friends now
Tabs
Blue Man Group (feat. Gavin Rossdale)
          The Current

e------------------------------------
B------------------------------------
G------------------------------------
D--2--4-4--4-5-2-----2x---Distortion On
A--2--4-4--4-5-2---------------------
E--0--2-2--2-3-0---------------------

e------------------------------------
B------------------------------------
G------------------------------------
D--2--4-4--4-5-2-----4x---Distortion Off
A--2--4-4--4-5-2------------Palm Muted
E--0--2-2--2-3-0---------------------

e------------------------------------
B------------------------------------
G------------------------------------
D--4---4---4-4------2x-Distortion Off
A--2---4---4-2-----------Palm Muted--
E--2---2---2-2-----------------------

e------------------------------------
B------------------------------------
G------------------------------------
D--2--4-4--4-5-2----4x-Distortion Off
A--2--4-4--4-5-2----------Palm Muted-
E--0--2-2--2-3-0---------------------

e------------------------------------------
B------------------------------------------
G------------------------------------------
D--2--2-2-2---5--5-5-5----1x-Distortion Off
A--2--2-2-2---3--3-3-5-----Palm Muted------
E--0--0-0-0---3--3-3-3---------------------
          
       FADED IN WITH

e------------------------------------
B------------------------------------
G--15~~----19~~~~--------18----------
D------------------------------------
A--------------------1x-Distortion On
E-----------------------With Effects-

e------------------------------------
B------------------------------------
G------------------------------------
D--2--4-4--4-5-2----6x-Distortion Off
A--2--4-4--4-5-2----------Palm Muted-
E--0--2-2--2-3-0---------------------

         Fadded In With

e------------------------------------
B---19~~~----------------------------
G------------------------------------
D-----------------1x---Distortion On-
A----------------------With-Effects--
E------------------------------------

e------------------------------------------
B------------------------------------------
G------------------------------------------
D--2--2-2-2---5--5-5-5----1x-Distortion Off
A--2--2-2-2---3--3-3-5-----Palm Muted------
E--0--0-0-0---3--3-3-3---------------------

            THEN

e------------------------------------
B------------------------------------
G------------------------------------
D--2--4-4--4-5-2----4x-Distortion Off
A--2--4-4--4-5-2----------Palm Muted-
E--0--2-2--2-3-0---------------------


               THEN

e------------------------------------
B------------------------------------
G------------------------------------
D--2--4-4--4-5-2----4x-Distortion Off
A--2--4-4--4-5-2----------Palm Muted-
E--0--2-2--2-3-0---------------------
            
          Fadded In With


e-----------------------------------------
B-------------------------0~----Let-------
G----9~~----12~~---11~~---0~--Feedback----
D-------------------------0~---Ring-------
A-----------------------------------------
E-----------------------------------------

e------------------------------------------
B-0~----------0-0-0-0-0-0------------------
G-0~----------0-0-0-0-0-0------------------
D-0~----------0-0-0-0-0-0------------------
A--With Up And ------------1x-Distotion-On-
E--Down Stroke----------------With Effects-

e------------------------------------
B------------------------------------
G------------------------------------
D--2--4-4--4-5-2-----2x-Distortion On
A--2--4-4--4-5-2---------------------
E--0--2-2--2-3-0---------------------

            WITH

e----------------16--20-21~~--------------------------
B---14~~-/3~~--------------------15~~14~~----Let------
G-----------------------------------------Feedback----
D------------------------------------------Ring-------
A-----------------------------------------------------
E-----------------------------------------------------


e---------------------------------------
B---------------------------------------
G---------------------------------------
D--7-(7x)----9-(7x)-----2x-Distortion On
A--5---------9--------------------------
E--5---------7--------------------------


e------------------------------------
B------------------------------------
G------------------------------------
D--2--4-4--4-5-2-----2x-Distortion On
A--2--4-4--4-5-2---------------------
E--0--2-2--2-3-0---------------------
         
          FADED WITH

e-----------------------------------------
B-----------------------------------------
G-x-9---8-9-8-----------------------------
D-----8----------------1x---Distortion On-
A---------------------------With-Effects--
E-----------------------------------------


e---------------------------------------
B---------------------------------------
G---------------------------------------
D--7-(7x)----9-(7x)-----2x-Distortion On
A--5---------9--------------------------
E--5---------7--------------------------

e------------------------------------
B------------------------------------
G------------------------------------
D--2--4-4--4-5-2-----2x-Distortion On
A--2--4-4--4-5-2---------------------
E--0--2-2--2-3-0---------------------
         
          FADED WITH

e-----------------------------------------
B-----------------------------------------
G-x-9---8-9-8-----------------------------
D-----8----------------1x---Distortion On-
A---------------------------With-Effects--
E-----------------------------------------

e--------------------------------------------------------
B--------------------------------------------------------
G--9--(7x)------7--(7x)-------14-(7x)--------------------
D--9------------7-------------14--------4x-Distortion On-
A--7------------5-------------12-------------Let Last----
E-----------------------Play On Last One-----One-Ring----
             
                WITH

e----------------------------------------------
B----------------------------------------------
G--9-(8x)---7-(8x)-----------------------------
D------------------------------3x-Distortion On
A----------------------------------------------
E----------------------------------------------

e------------------------------------
B------------------------------------
G------------------------------------
D--2--4-4--4-5-2-----4x-Distortion On
A--2--4-4--4-5-2---------------------
E--0--2-2--2-3-0---------------------

e------------------------------------
B------------------------------------
G------------------------------------
D--2--4-4--4-5-2----4x-Distortion Off
A--2--4-4--4-5-2----------Palm Muted-
E--0--2-2--2-3-0---------------------

e------------------------------------
B------------------------------------
G------------------------------------
D--4---4---4-4------2x-Distortion Off
A--2---4---4-2-----------Palm Muted--
E--2---2---2-2-----------------------

e------------------------------------
B------------------------------------
G------------------------------------
D--2--4-4--4-5-2----6x-Distortion Off
A--2--4-4--4-5-2----------Palm Muted-
E--0--2-2--2-3-0---------------------

e------------------------------------------
B------------------------------------------
G------------------------------------------
D--2--2-2-2---5--5-5-5----1x-Distortion Off
A--2--2-2-2---3--3-3-5-----Palm Muted------
E--0--0-0-0---3--3-3-3---------------------

       FADED IN WITH

e---------------------------------------------------
B--12~~--15~~----14~~----0~-----12~---15~~----------
G------------------------0~-------------------------
D------------------------0~-------------------------
A-----------------------------------1x-Distortion On
E------------------------------------With Effects---

e------------------------------------
B------------------------------------
G------------------------------------
D--2--4-4--4-5-2-----4x-Distortion On
A--2--4-4--4-5-2---------------------
E--0--2-2--2-3-0---------------------

           WITH

e----------------16--20-21~~--------------------------
B---14~~-/3~~--------------------15~~14~~----Let------
G-----------------------------------------Feedback----
D------------------------------------------Ring-------
A-----------------------------------------------------
E-----------------------------------------------------

e---------------------------------------
B---------------------------------------
G---------------------------------------
D--7-(7x)----9-(7x)-----2x-Distortion On
A--5---------9--------------------------
E--5---------7--------------------------

e------------------------------------
B------------------------------------
G------------------------------------
D--2--4-4--4-5-2-----2x-Distortion On
A--2--4-4--4-5-2---------------------
E--0--2-2--2-3-0---------------------
         
          FADED WITH

e-----------------------------------------
B-----------------------------------------
G-x-9---8-9-8-----------------------------
D-----8----------------1x---Distortion On-
A---------------------------With-Effects--
E-----------------------------------------

e---------------------------------------
B---------------------------------------
G---------------------------------------
D--7-(7x)----9-(7x)-----2x-Distortion On
A--5---------9--------------------------
E--5---------7--------------------------

e------------------------------------
B------------------------------------
G------------------------------------
D--2--4-4--4-5-2-----2x-Distortion On
A--2--4-4--4-5-2---------------------
E--0--2-2--2-3-0---------------------
         
          FADED WITH

e-----------------------------------------
B-----------------------------------------
G-x-9---8-9-8-----------------------------
D-----8----------------1x---Distortion On-
A---------------------------With-Effects--
E-----------------------------------------

e--------------------------------------------------------
B--------------------------------------------------------
G--9--(7x)------7--(7x)-------14-(7x)--------------------
D--9------------7-------------14--------4x-Distortion On-
A--7------------5-------------12-------------Let Last----
E-----------------------Play On Last One-----One-Ring----
             
              WITH

e----------------------------------------------
B----------------------------------------------
G--9-(8x)---7-(8x)-----------------------------
D------------------------------3x-Distortion On
A----------------------------------------------
E----------------------------------------------

e---------------------------------------
B---------------------------------------
G---------------------------------------
D--7-(7x)----9-(7x)-----2x-Distortion On
A--5---------9--------------------------
E--5---------7--------------------------

e------------------------------------
B------------------------------------
G------------------------------------
D--2--4-4--4-5-2-----2x-Distortion On
A--2--4-4--4-5-2---------------------
E--0--2-2--2-3-0---------------------
         
          FADED WITH

e-----------------------------------------
B-----------------------------------------
G-x-9---8-9-8-----------------------------
D-----8----------------1x---Distortion On-
A---------------------------With-Effects--
E-----------------------------------------

e---------------------------------------
B---------------------------------------
G---------------------------------------
D--7-(7x)----9-(7x)-----2x-Distortion On
A--5---------9--------------------------
E--5---------7--------------------------

e------------------------------------
B------------------------------------
G------------------------------------
D--2--4-4--4-5-2-----2x-Distortion On
A--2--4-4--4-5-2---------------------
E--0--2-2--2-3-0---------------------
         
          FADED WITH

e-----------------------------------------
B-----------------------------------------
G-x-9---8-9-8-----------------------------
D-----8----------------1x---Distortion On-
A---------------------------With-Effects--
E-----------------------------------------

e--------------------------------------------------------
B--------------------------------------------------------
G--9--(7x)------7--(7x)-------14-(7x)--------------------
D--9------------7-------------14--------4x-Distortion On-
A--7------------5-------------12-------------Let Last----
E-----------------------Play On Last One-----One-Ring----
             
              WITH

e----------------------------------------------
B----------------------------------------------
G--9-(8x)---7-(8x)-----------------------------
D------------------------------4x-Distortion On
A----------------------------------------------
E----------------------------------------------

e-----------------------------------------------
B-----------------------------------------------
G--4--(7x)------7-(7x)--------------------------
D--4------------7--------------1x-Distortion On-
A--2------------5-------------------------------
E-----------------------------------------------

              WITH

e----------------------------------------------
B----------------------------------------------
G--11-(4x)-/-18-(4x)---------------------------
D------------------------------1x-Distortion On
A----------------------------------------------
E----------------------------------------------


e------------------------------------
B------------------------------------
G------------------------------------
D--2--4-4--4-5-2-----6x-Distortion On
A--2--4-4--4-5-2---------------------
E--0--2-2--2-3-0---------------------

e------------------------------------
B------------------------------------
G--9/11-(5x)-/9----------------------
D--------------------6x-Distortion On
A------------------------------------
E------------------------------------


e------------------------------------
B------------------------------------
G------------------------------------
D--2--4-4-----------6x-Distortion On-
A--2--4-4----------------------------
E--0--2-2----------------------------





Comments


Popular Gavin Rossdale tabs & chords
Adrenaline Bass Tabs
Forever May You Run Chords
Love Remains The Same Chords
Love Remains The Same 1 Chords
Love Remains The Same 3 Chords
Love Remains The Same 5 Chords
Love Remains The Same Intro Chords
Forever May You Run Tabs
Forever May You Run Ukulele
Love Remains The Same Intro Ukulele


Song lyrics



↑ Back to top | Tablatures and chords are parodies/interpretations of the original songs. You may use it for private study, scholarship, research or language learning purposes only
© 2014 AZChords.com Contact us | Privacy policy | DMCA | Add/correct tabs | Request tabs | Top 50 tabs