>
 >
Forever May You Run

Forever May You Run Guitar Tabs

Gavin Rossdale - Forever May You Run chords, tabs, tablatures, lyrics

Guitar lessons | Add/correct | Request | Top 50 tabs Artists:  A B C D E F G H I J K L M N O P Q R S T U V W X Y Z 0-9

Forever May You Run Guitar Tabs – Gavin Rossdale

CD, Sheet music, Poster

Do you like Forever May You Run? Share with your friends now
ChordsTabsTabs v2Ukulele
-------------------------------------------------------------------------
FOREVER MAY YOU RUN  Gavin Rossdale
-------------------------------------------------------------------------

Here's the tab, how to pick the song. Works quite nicely, and it's not
that difficult.

Standard tuning

INTRO
   Am              F/A   Asus2#5   Am              F/A   Asus2#5
e|-----------------------------------------------------------------------|
B|-----------------------------------------------------------------------|
G|-5---5---5---5---5---5---4---4---5---5---5---5---5---5---4---4---------|
D|-7---7---7---7---3---3---3---3---7---7---7---7---3---3---3---3---------|
A|-0-0---0---0---0-0-0---0---0---0-0-0---0---0---0-0-0---0---0---0-------|
E|-----------------------------------------------------------------------|

VERSE1 and VERSE2
   Am              F/A   Asus2#5   Am              F/A   Asus2#5
e|-----------------------------------------------------------------------|
B|-----------------------------------------------------------------------|
G|-5---5---5---5---5---5---4---4---5---5---5---5---5---5---4---4---------|
D|-7---7---7---7---3---3---3---3---7---7---7---7---3---3---3---3---------|
A|-0-0---0---0---0-0-0---0---0---0-0-0---0---0---0-0-0---0---0---0-------|
E|-----------------------------------------------------------------------|
   C      Bb*    Fsus2  C      Bb*    Fsus2
e|-----------------------------------------------------------------------|
B|-----------------------------------------------------------------------|
G|-----0------0------0------0------0------0------------------------------|
D|---2------3------3------2------3------3--------------------------------|
A|-3------1-------------3------1-----------------------------------------|
E|---------------1--------------------1----------------------------------|

VERSE1 with lyrics
Am                     F/A  Asus2#5
   Take it easy on yourself
Am                     F/A  Asus2#5
   Take it easy on yourself
C         Bb*           Fsus2
   Silent sounds of yesterday
             C   Bb*            Fsus2
The ghost of you dancing in the hallway

PRE-CHORUS (begin strumming)                                  G6 = 355430 
Am                     G6                                  Fmaj7 = 133210
  Lunar to base, let's get this on
    Fmaj7
The kids have gone mad, they've been insane all along

CHORUS
C                 Am                   G                    F
  Forever may you run, forever may you run, forever may you run
C                 Am                   G                    F
  Forever may you run, forever may you run, forever may you

VERSE2 (play same as verse1)
Am                          F/A  Asus2#5
   You don't deserve to get lost
Am                    F/A         Asus2#5
   Soon will come the waves will stop
    C     Bb*        Fsus2
The still     of the night
        C    Bb*       Fsus2                                C    Fsus2
Sitting amps    in the half line, may your struggles all be one

PRE-CHORUS
Am                     G6
  Lunar to base, let's get this on
    Fmaj7
The kids have gone mad, they've been insane all along

CHORUS (same as before)
C                 Am                   G                    F
  Forever may you run, forever may you run, forever may you run
                C                    Am                   G
Forever may you run, forever may you run, forever may you run
                F
Forever may you

BRIDGE
    Am                          (G/B)            G
I'm walking until the end, I got nowhere left to go
  Fmaj7
I got so in between, didn't make it to the disco
    Am                          G/B 
The president's in bed, they're trying to find a king
F/C                  F 
Buddha here is busy, Jesus wasn't in

INTERLUDE/SOLO
C  Am  G  F
C  Am  G  F

VERSE3
Am7                     Fmaj7sus2                            Am7 = x02010
   There is snow over the road                         Fmaj7sus2 = 133010
Am7                          Fmaj7sus2
   We'll have to wait before we go
C            Bb*      Fsus2          C   Bb*     Fsus2
  So let the heat come in, where you end     I begin

CHORUS
C              Am               G                F
   Low low low low, low low low low, low low low low
C              Am               G                F
   Low low low low, low low low low, low low low low
C                  Am                   G                    F
   Forever may you run, forever may you run, forever may you run
                C                    Am                   G
Forever may you run, forever may you run, forever may you run
                F      C      Am     G      F
Forever may you... run... run... run... run

You did it all to yourself.

========================================================================
Comment, rate, appreciate!





Comments


Popular Gavin Rossdale tabs & chords
Adrenaline Bass Tabs
Love Remains The Same Chords
Love Remains The Same 1 Chords
Love Remains The Same 2 Chords
Love Remains The Same 4 Chords
Love Remains The Same 5 Chords
Love Remains The Same Acoustic Intro Tabs
The Current Tabs
Love Remains The Same Ukulele
Love Remains The Same Intro Ukulele


Song lyrics



↑ Back to top | Tablatures and chords are parodies/interpretations of the original songs. You may use it for private study, scholarship, research or language learning purposes only
© 2014 AZChords.com Contact us | Privacy policy | DMCA | Add/correct tabs | Request tabs | Top 50 tabs