» » »

Gavin Rossdale, Adrenaline Bass tabs (ver.1)

Artists:  A B C D E F G H I J K L M N O P Q R S T U V W X Y Z # 

Adrenaline Bass tabs (ver.1)

Gavin Rossdale Tabs
 Rating:
4/5 (4 votes)
Adrenaline lessons Tabs too difficult? Try these video lessons and learn fast
                Adrenaline by Gavin Rossdale

INTRO/VERSE
G-----------------------------------------------------|
D-----------------------------------------------------|
A---------------------------3-3-3-3-3-3--0-0-0-0-0-0--|
E-0-0-0-0-0-0--3-3-3-3-3-3----------------------------|

CHORUS
G-------------------------------------------------------|
D-------------------------------------------------------|
A-333-333--000-000-----------333-333--000-000-----------|
E-------------------000-000--------------------000-000--|

G------------------------------|
D------------------------------|
A-333-333-------------------5--|
E----------555-555-333-333-----|

BRIDGE
G------------------------------------------------|
D------------------------------------------------|
A---------------------------------------------5--|
E-111-111--333-333--555-555--111-111--333-333----|

OUTRO
G-------------------------------------|
D-------------------------------------|
A----------555-555--333-333--000-000--|
E-000-000-----------------------------|

Any corrections please comment
Thanks
            
Submit corrections

comments powered by Disqus
↑ Back to top | Gavin Rossdale Bass for Adrenaline. Lyrics for acoustic guitar and electric guitar. Tablatures and chords are parodies/interpretations of the original songs. You may use it for private study, scholarship, research or language learning purposes only