» » »

Gavin Degraw, Not Over You Chords (ver.2)

Artists:  A B C D E F G H I J K L M N O P Q R S T U V W X Y Z # 

Not Over You Chords (ver.2)

Gavin Degraw Tabs
 Rating:
4/5 (5 votes)
Not Over You lessons Tabs too difficult? Try these video lessons and learn fast
1
                -------------------------------------------------------------------------------
                             Not Over You - Gavin DeGraw
-------------------------------------------------------------------------------

Song : Not Over You
Artist : Gavin DeGraw


Tuning: Standard


If a part repeats I didn't put chords over the lyrics. I know you can figure it out :-) 
This is a new Gavin DeGraw song that he wrote with Ryan Tedder.

Chords Used : Bb    Cm or Cm7    Eb    F    Gm    


e|----1----------3-----3-----------6-----------1------------3---------------|
B|----3----------4-----4-----------8-----------1------------3---------------|
G|----3----------5-----3-----------8-----------2------------3---------------|
D|----3----------5-----5-----------8-----------3------------5---------------|
A|----1----------3-----3-----------6-----------3------------5---------------|
E|---------------------------------------------1------------3---------------|


Chords with Capo on first fret : A    Bm or Bm7    D    E    F#m


e|----0--------2-----2---------2--------0----------2------------------------|
B|----3--------3-----3---------3--------0----------2------------------------|
G|----3--------4-----2---------2--------2----------2------------------------|
D|----3--------4-----4---------0--------3----------4------------------------|
A|----0--------2-----2------------------3----------4------------------------|
E|--------------------------------------0----------2------------------------|


Each chord shown below will have the chord used with a capo in ()

Bb (A)  Cm or Cm7 (Bm or Bm7)  Eb (D)  F (E)  Gm (F#m)


Intro : Bb Cm Gm F


Bb                       Cm                Gm
Dreams, that's where I have to go
                   F   Bb
to see your beautiful face anymore
  Cm            Gm                                F
I stare at a picture of you and listen to the radio
Hope, hope there's a conversation
where we both admit we had it good but
until then it's alienation, I know, that much is understood
Eb (Held Out)
And I realize

CHORUS:
       Bb                          Eb
If you ask me how I'm doin I would say I'm doin just fine
         Gm                    F               Eb
I would lie and say that you're not on my mind
But I go out and I sit down at a table set for two 
and finally I'm forced to face the truth
           Gm           F
No matter what I say, I'm not over you
(Intro)
Not over you

Damn, damn girl you do it well
And I thought you were innocent
You took this heart and put it through hell
But still you're magnificent 
I I'm a boomerang doesn't matter how you throw me
Turn around and I'm back in the game
Even better than the old me
Eb (Held Out)
But I'm not even close without you

CHORUS:
       Bb                          Eb
If you ask me how I'm doin I would say I'm doin just fine
         Gm                    F               Eb
I would lie and say that you're not on my mind
But I go out and I sit down at a table set for two 
and finally I'm forced to face the truth
           Gm           F
No matter what I say, I'm not over you

BRIDGE:
Gm     F          Bb        Eb
And if I had the chance to renew
You know there isn't a thing I wouldn't do
I could get back on the right track
But only if you'd be convinced
Gm       F
So until then

CHORUS:
       Bb                          Eb
If you ask me how I'm doin I would say I'm doin just fine
         Gm                    F               Eb
I would lie and say that you're not on my mind
But I go out and I sit down at a table set for two 
and finally I'm forced to face the truth
           Gm           F
No matter what I say, I'm not over you
(Intro)
Not over you
Not over you
Not over you
            
Submit corrections

comments powered by Disqus
↑ Back to top | Gavin Degraw Chords for Not Over You. Lyrics for acoustic guitar and electric guitar. 1 Tablatures and chords are parodies/interpretations of the original songs. You may use it for private study, scholarship, research or language learning purposes only