» » »

Chemical Party Bass tabs (ver.1)

Artists:  A B C D E F G H I J K L M N O P Q R S T U V W X Y Z # 

Chemical Party Bass tabs (ver.1)

Gavin Degraw
Rating:
5/5 (1 vote)

Hard to play? Try these video lessons and learn fast.
                This one is for my dude, Lækre Troels :P
it's not the right way to play the song, but if your only a singer and a bassist in a 
you might as well fill the song out, so here goes...


Intro;
---------------------------------------|
-15-15--151515--151515--151515--151515-|
-13-13--131313--131313--131313--131313-|
---------------------------------------|


Vers;
--------------------------------|
-151515--151515--151515--151515-|
-131313--131313--131313--131313-|
--------------------------------|

---------------------|
---------------------|
-13--131313----------|
-11--111111----------|

-------------------------------|
-15-15--151515--151515--151515-|
-13-13--131313--131313--131313-|
-------------------------------|

---------------------|
---------------------|
-13--131313----------|
-11--111111----------|

------------
-1515151515-
-1313131313-
------------


Chorus;
-------------------------------|
---10------8----8--6-8-6-------|
-88--0--66--0------------8-6/8-|
--------------66---------------|


-----------------------8-6-|
---10------8-0---8-6-8-----|
-88--0--66-----------------|
---------------66----------|


---------------------------|
---10------8-----8---8-----|
-88--0--66--0-----6/8-10-8-|
---------------66----------|


-------------|
--10-----8---|
88--0--66--0-|
-------------|


vers;
-151515--151515--151515--1515--15---|
-151515--151515--151515--1515-15-15-|
-131313--131313--131313--131313-----|
------------------------------------|

---------------------|
-13--131313----------|
-13--131313----------|
-11--111111----------|

------------------------------15---|
-15-15--151515--151515--1515-15-15-|
-13-13--131313--131313--131313-----|
-----------------------------------|

---------------------|
-13--131313----------|
-13--131313----------|
-11--111111----------|

-1515151515-15/-|
-1515151515-----|
-1313131313-----|
----------------|


Chorus;
-------------------------------|
---10------8----8--6-8-6-------|
-88--0--66--0------------8-6/8-|
--------------66---------------|


-----------------------8-6-|
---10------8-0---8-6-8-----|
-88--0--66-----------------|
---------------66----------|


---------------------------|
---10------8-----8---8-----|
-88--0--66--0-----6/8-10-8-|
---------------66----------|


-----------------------------|
---10-----8------------------|
-88--0--66--0----------------|
--------------8888888888888/-|


Middel part;
-1010101010101010--88888888-|
-1010101010101010--88888888-|
-8-8-8-8-8-8-8-8---66666666-|x2


---------------17---17---17-|
-17---17---17--17--17-17----|
-17--17-17-----15-15----15--|
-15-15----15----------------|


---------------------|
-88888888-1010101010-|
-66666666-8-8-8-8-8--|
---------------------|


Chorus;
-------------------------------|
---10------8----8--6-8-6-------|
-88--0--66--0------------8-6/8-|
--------------66---------------|


-----------------------8-6-|
---10------8-0---8-6-8-----|
-88--0--66-----------------|
---------------66----------|


---------------------------|
---10------8-----8---8-----|
-88--0--66--0-----6/8-10-8-|
---------------66----------|


-------------|
--10-----8---|
88--0--66--0-|
-------------|


-------------------------------|
---10------8----8--6-8-6-------|
-88--0--66--0------------8-6/8-|
--------------66---------------|


-----------------------8-6-|
---10------8-0---8-6-8-----|
-88--0--66-----------------|
---------------66----------|


---------------------------|
---10------8-----8---8-----|
-88--0--66--0-----6/8-10-8-|
---------------66----------|


----------------------|
--10-----8------------|
88--0--66--0-88888888-|
-------------66666666-|


----------------|
-10101010--8888-|
-8-8-8-8---6666-|
----------------|


Outro;
---------------------------------------|
-15-15--151515--151515--151515--151515-|
-13-13--131313--131313--131313--131313-|
---------------------------------------|


-15-15--151515-|
-13-13--131313-|
---------------|
---------------|

-15~
-15~
-13~
----
            
Hard to play? Try these video lessons and learn fast. | Correct




comments powered by Disqus
↑ Back to top | Tablatures and chords are parodies/interpretations of the original songs. You may use it for private study, scholarship, research or language learning purposes only