» » »

White Mountains Bass tabs (ver.1)

Artists:  A B C D E F G H I J K L M N O P Q R S T U V W X Y Z # 

White Mountains Bass tabs (ver.1)

Gatsbys American Dream
Rating:
5/5 (2 votes)

Hard to play? Try these video lessons and learn fast.
                Intro
G--------------------------------------------------------------|
D--------------------------------------------------------------|
A----------------------66--4---------------------66--4---------|
E--6--66--99---2~--3~-----------6-99---2~--3~----------6-------|

G---------------------------------------------------------|
D---------------------------------------------------------|
A----4----4------3-4----------4-6-4-6---6-8-6-4-----------|
E--6--6-4------6----4-2----6----------------------6-------| x3

G------------------------------------------|
D------------------------------------------|
A----4----4------3-4----------6~\----------|
E--6--6-4------6----4-2~-------------------|

Rest while the piano rocks your socks off

G------------------------------------|
D------------------------------------|
A-----------------------66--4--------|
E--6--66--99---2~--3~-----------6----|

G---------------------------------------------------------|
D---------------------------------------------------------|
A----4----4------3-4----------4-6-4-6---6-8-6-4-----------|
E--6--6-4------6----4-2----6----------------------6-------| x3

G------------------------------------------|
D------------------------------------------|
A----4----4------3-4----------6~\----------|
E--6--6-4------6----4-2~-------------------|

Breakdown
G--------------------------------------------------------------------------------------------------------------------------|
D--------------------------------------------------------------------------------------------------------------------------|
A--1---3-4--4------------6~\-----1---3-4--4------------6~\-----1---3-4--4-----------6~\-----1---3-4--4--------------6x19\--|
E--------------6-4-3-2~-----------------------6-4-3-2~----------------------6-4-3-2~----------------------6-4-3-2~---------|

Chorus
G--------------------------------------------|
D--------------------------------------------|
A--4x8-------2x16--4x8------2x8--------------|
E--------4x8--------------4x8------2x8-------| x2

G-------------------------------------------------------------------|
D-------------------------------------------------------------------|
A--6--6--6--6--6-6------------------8--8--8--8--8-8-----------------|
E--------------------4--4--4--4--4-4-------------------6x15\--------|

Chorus
G--------------------------------------------|
D--------------------------------------------|
A--4x8-------2x16--4x8--------2x8------------|
E--------4x8--------------4x8------2x8-------| x2

G-------------------------------|
D-------------------------------|
A--6x16--------8x16-------------|
E---------4x16--------6~--------|
            
Hard to play? Try these video lessons and learn fast. | Correct




comments powered by Disqus
↑ Back to top | Tablatures and chords are parodies/interpretations of the original songs. You may use it for private study, scholarship, research or language learning purposes only