>
 >
Theatre

Theatre Guitar Tabs

Gatsbys American Dream - Theatre chords, tabs, tablatures, lyrics

Guitar lessons | Add/correct | Request | Top 50 tabs Artists:  A B C D E F G H I J K L M N O P Q R S T U V W X Y Z 0-9

Theatre Guitar Tabs – Gatsbys American Dream

CD, Sheet music, Poster

Do you like Theatre? Share with your friends now
Tabs
-------------------------------------------------------------------------------
                             Theatre - Gatsby's american dream
-------------------------------------------------------------------------------


Tuning: standard

this is from a PT file, I jsut hate using programms, so I thought it would be easy for 
likes of me.

     W                H           W                H
E||----------------------------|----------------------------|
B||----------------------------|----------------------------|
G||----------------------------|----------------------------|
D||----------------------------|----------------------------|
A||----------------------------|----------------------------|
E||----------------------------|----------------------------|


                               ^
  W                H           W.                  W.
----------------------------|--0----------------|--L----------------|
----------------------------|--1----------------|--L----------------|
----------------------------|--2----------------|--L----------------|
----------------------------|--2----------------|--L----------------|
----------------------------|--0----------------|--L----------------|
----------------------------|-------------------|-------------------|


  W                H           W                H
----------------------------|----------------------------|
----------------------------|----------------------------|
----------------------------|----------------------------|
----------------------------|----------------------------|
----------------------------|----------------------------|
----------------------------|----------------------------|


  PM PM PM PM PM PM PM PM    PM PM PM PM PM PM PM PM
  E  E  E  E  E  E  E  E     E  E  E  E  E  E  E  E
--------------------------|--------------------------|
--1--1--1--1--1--1--1-----|--------------------------|
--2--2--2--2--2--2--2--0--|--0--0--0--0--0--0--0--5--|
--2--2--2--2--2--2--2--2--|--2--2--2--2--2--2--2--4--|
--0--0--0--0--0--0--0--3--|--3--3--3--3--3--3--3--5--|
--------------------------|--------------------------|


  PM PM PM PM PM PM PM
  E  E  E  E  E  E  E   E      E   E  E  Q    E  E  E
---------------------------|---------------------------|
---------------------------|------------------------1--|
--5--5--5--5--5--5--5--10--|---L--10-----9----9-----2--|
--4--4--4--4--4--4--4--10--|---L--10-----9----9-----2--|
--5--5--5--5--5--5--5---8--|---L---8-----7----7-----0--|
---------------------------|---------------------------|


  E  E  Q    E  E  E  E     E  E  Q    E  E  E  E     E  E  Q    E  E  E  E
-------------------------|-------------------------|-------------------------|
--L--1--1----1--1--1--1--|--L--1--1----1--1--1-----|-------------------------|
--L--2--2----2--2--2--0--|--L--0--0----0--0--0--5--|--L--5--5----5--5--5--7--|
--L--2--2----2--2--2--2--|--L--2--2----2--2--2--4--|--L--4--4----4--4--4--6--|
--L--0--0----0--0--0--3--|--L--3--3----3--3--3--5--|--L--5--5----5--5--5--7--|
-------------------------|-------------------------|----------------------0--|


  E  E  E  E  S S E  E  E     E  E  E  E  S S E  E  E     W.
---------------------------|---------------------------|--0----------------|
---------------------------|---------------------------|--1----------------|
--7--7--7--7--7-7-7--7--7--|--7--7--7--7--7-7-7--7--7--|--2----------------|
--6--6--6--6--6-6-6--6--6--|--6--6--6--6--6-6-6--6--6--|--2----------------|
--7--7--7--7--7-7-7--7--7--|--7--7--7--7--7-7-7--7--7--|--0----------------|
--0--0--0--0--0-0-0--0--0--|--0--0--0--0--0-0-0--0--0--|-------------------|


  E  E   E   E   E   E   H.              W                H
-----7h--8p--7h--8p--7p--5------------|----------------------------|
--------------------------------------|----------------------------|
--------------------------------------|----------------------------|
--------------------------------------|----------------------------|
--------------------------------------|----------------------------|
--------------------------------------|----------------------------|


  W                H           W                H
----------------------------|----------------------------|
----------------------------|----------------------------|
----------------------------|----------------------------|
----------------------------|----------------------------|
----------------------------|----------------------------|
----------------------------|----------------------------|


  |--3--|  |---3--|   |---3--|  |---3--|
  Q     E  E   E  E   E  E   E  E   E  E   H
----------------------------------------------------|
-------13-----13-----13-----13-----13-----13--------|
-------14-----14-----14-----14-----14-----14--------|
-------14-----14-----14-----14-----14-----14--------|
-------12-----12-----12-----12-----12-----12--------|
----------------------------------------------------|


  W                H
----------------------------|
----------------------------|
----------------------------|
----------------------------|
----------------------------|
----------------------------|


   PM PM PM PM       PM PM PM PM
   S  S  S  S  Q     S  S  S  S  Q    E   S  S  E   E      W.
-------------------------------------------------------|--------------------|
---------------------------------------------------13--|--13----------------|
--------------14----------------14-------14-14-14------|--14----------------|
--------------14----------------14---------------------|--14----------------|
--12-12-12-12-12----12-12-12-12-12---------------------|--12----------------|
-------------------------------------------------------|--------------------|


   W.                   W.                   W.
--------------------|--------------------|--------------------|
---L----------------|---L----------------|--13----------------|
---L----------------|---L----------------|--14----------------|
---L----------------|---L----------------|--14----------------|
---L----------------|---L----------------|--12----------------|
--------------------|--------------------|--------------------|


                                 PM PM PM                 PM PM PM
  H.           Q       Q    Q    E  E  E  E     Q    Q    E  E  E  E
--------------------|------------------------|------------------------|
---------------0----|--1----1----------------|------------------------|
---------------0----|--2----2----2--2--2--0--|--L----0----0--0--0--5--|
---------------0----|--2----2----2--2--2--2--|--L----2----2--2--2--4--|
--------------------|--0----0----0--0--0--3--|--L----3----3--3--3--5--|
--------------------|------------------------|------------------------|


            PM PM PM
  Q    Q    E  E  E   E      E   E  E  Q    E  E  E     E  E  Q    E  E  E  E
-------------------------|---------------------------|-------------------------|
-------------------------|------------------------1--|--L--1--1----1--1--1--1--|
--L----5----5--5--5--10--|---L--10-----9----9-----2--|--L--2--2----2--2--2--0--|
--L----4----4--4--4--10--|---L--10-----9----9-----2--|--L--2--2----2--2--2--2--|
--L----5----5--5--5---8--|---L---8-----7----7-----0--|--L--0--0----0--0--0--3--|
-------------------------|---------------------------|-------------------------|


  E  E  Q    E  E  E  E     E  E  Q    E  E  E  E     E  E  E  E  E  E  E  E
-------------------------|-------------------------|--------------------------|
--L--1--1----1--1--1-----|-------------------------|--------------------------|
--L--0--0----0--0--0--5--|--L--5--5----5--5--5--7--|--7--7--7--7--7--7--7--7--|
--L--2--2----2--2--2--4--|--L--4--4----4--4--4--6--|--6--6--6--6--6--6--6--6--|
--L--3--3----3--3--3--5--|--L--5--5----5--5--5--7--|--7--7--7--7--7--7--7--7--|
-------------------------|----------------------0--|--0--0--0--0--0--0--0--0--|


  E  E  E  E  E  E  E  E     E  E  Q    E  E  Q       E  E  Q    E  E  Q
--------------------------|------------------------|------------------------|
--------------------------|--1--1-------1--1-------|--1--1-------1--1-------|
--7--7--7--7--7--7--7--7--|--2--2-------2--2-------|--2--2-------2--2-------|
--6--6--6--6--6--6--6--6--|--2--2-------2--2-------|--2--2-------2--2-------|
--7--7--7--7--7--7--7--7--|--0--0-------0--0-------|--0--0-------0--0-------|
--0--0--0--0--0--0--0--0--|------------------------|------------------------|


  E  E  Q    E  E  Q       E  E  Q    E  E  Q       E  E  Q    E  E  Q
------------------------|------------------------|--0--0-------0--0-------|
--1--1-------1--1-------|--1--1-------1--1-------|--0--0-------0--0-------|
--2--2-------2--2-------|--2--2-------2--2-------|--1--1-------1--1-------|
--2--2-------2--2-------|--2--2-------2--2-------|--2--2-------2--2-------|
--0--0-------0--0-------|--0--0-------0--0-------|--2--2-------2--2-------|
------------------------|------------------------|--0--0-------0--0-------|


  E  E  Q    E  E  Q       E  E  Q    E  E  Q       E  E  Q    E  E  Q
--0--0-------0--0-------|--0--0-------0--0-------|--0--0-------0--0-------|
--0--0-------0--0-------|--0--0-------0--0-------|--0--0-------0--0-------|
--1--1-------1--1-------|--1--1-------1--1-------|--1--1-------1--1-------|
--2--2-------2--2-------|--2--2-------2--2-------|--2--2-------2--2-------|
--2--2-------2--2-------|--2--2-------2--2-------|--2--2-------2--2-------|
--0--0-------0--0-------|--0--0-------0--0-------|--0--0-------0--0-------|


  E  E  Q    E  E  Q       E  E  Q    E  E  Q       E  E  Q    E  E  Q
------------------------|------------------------|------------------------|
--1--1-------1--1-------|--1--1-------1--1-------|--1--1-------1--1-------|
--2--2-------2--2-------|--2--2-------2--2-------|--2--2-------2--2-------|
--2--2-------2--2-------|--2--2-------2--2-------|--2--2-------2--2-------|
--0--0-------0--0-------|--0--0-------0--0-------|--0--0-------0--0-------|
------------------------|------------------------|------------------------|


  E  E  Q    E  E  Q       E  E  Q    E  E  Q       E  E  Q    E  E  Q
------------------------|--0--0-------0--0-------|--0--0-------0--0-------|
--1--1-------1--1-------|--0--0-------0--0-------|--0--0-------0--0-------|
--2--2-------2--2-------|--1--1-------1--1-------|--1--1-------1--1-------|
--2--2-------2--2-------|--2--2-------2--2-------|--2--2-------2--2-------|
--0--0-------0--0-------|--2--2-------2--2-------|--2--2-------2--2-------|
------------------------|--0--0-------0--0-------|--0--0-------0--0-------|


  E  E  Q    E  E  Q       E  E  Q    E  E  Q       Q    Q    Q    Q
--0--0-------0--0-------|--0--0-------0--0-------|----------------------|
--0--0-------0--0-------|--0--0-------0--0-------|--1---------1---------|
--1--1-------1--1-------|--1--1-------1--1-------|--2---------2---------|
--2--2-------2--2-------|--2--2-------2--2-------|--2---------2---------|
--2--2-------2--2-------|--2--2-------2--2-------|--0---------0---------|
--0--0-------0--0-------|--0--0-------0--0-------|----------------------|


  Q    Q    Q    Q       Q    Q    Q    Q       Q    Q    Q    Q
----------------------|----------------------|----------------------|
--1---------1---------|--1---------1---------|--1---------1---------|
--2---------2---------|--2---------2---------|--2---------2---------|
--2---------2---------|--2---------2---------|--2---------2---------|
--0---------0---------|--0---------0---------|--0---------0---------|
----------------------|----------------------|----------------------|


  Q    Q    Q    Q       Q    Q    Q    Q       Q    Q    Q    Q
--0---------0---------|--0---------0---------|--0---------0---------|
--0---------0---------|--0---------0---------|--0---------0---------|
--1---------1---------|--1---------1---------|--1---------1---------|
--2---------2---------|--2---------2---------|--2---------2---------|
--2---------2---------|--2---------2---------|--2---------2---------|
--0---------0---------|--0---------0---------|--0---------0---------|


  Q    Q    Q    Q       Q    Q    Q    Q       Q    Q    Q    Q
--0---------0---------|--0---------0---------|--0---------0---------|
--0---------0---------|--1---------1---------|--1---------1---------|
--1---------1---------|--2---------2---------|--2---------2---------|
--2---------2---------|--2---------2---------|--2---------2---------|
--2---------2---------|--0---------0---------|--0---------0---------|
--0---------0---------|----------------------|----------------------|


                                                PM PM PM PM PM PM PM PM
  Q    Q    Q    Q       Q    Q    Q    Q       E  E  E  E  E  E  E  E
--0---------0---------|--0---------0----0----|--------------------------|
--1---------1---------|--1---------1----1----|--------------------------|
--2---------2---------|--2---------2----2----|--------------------------|
--2---------2---------|--2---------2----2----|--2--2--2--2--2--2--2--2--|
--0---------0---------|--0---------0----0----|--2--2--2--2--2--2--2--2--|
----------------------|----------------------|--0--0--0--0--0--0--0--0--|


  PM PM PM PM PM PM PM PM    PM PM PM PM PM PM PM PM
  E  E  E  E  E  E  E  E     E  E  E  E  E  E  E  E
--------------------------|--------------------------|
--------------------------|--------------------------|
--------------------------|--------------------------|
--2--2--2--2--2--2--2--2--|--2--2--2--2--2--2--2--2--|
--2--2--2--2--2--2--2--2--|--2--2--2--2--2--2--2--2--|
--0--0--0--0--0--0--0--0--|--0--0--0--0--0--0--0--0--|


  PM PM PM PM PM PM PM PM
  E  E  E  E  E  E  E  E       E  E  E  E  E  E  E  E  E  E  E   E   7x
--------------------------||-----------------------------------------||
--------------------------||-----------------------------------------||
--------------------------||*---------------------------------------*||
--2--2--2--2--2--2--2--2--||*---------------------------------------*||
--2--2--2--2--2--2--2--2--||------------3--3-------------------------||
--0--0--0--0--0--0--0--0--||---5--5--------------3--3-----4--4p--0---||


  E  E  E  E  E  E  E  E  E  E  E  E     H.           E  E
--------------------------------------|--0------------L-----|
--------------------------------------|--0------------L--1--|
--------------------------------------|--1------------L--2--|
--------------------------------------|--2------------L--2--|
-----------3--3-----------------------|--2------------L--0--|
--5--5--------------3--3-----4--4-----|--0------------L-----|


  E  E  Q    E  E  E  E     E  E  Q    E  E  E  E     E  E  Q    E  E  E   E
-------------------------|-------------------------|--------------------------|
--L--1--1----1--1--1--1--|--L--1--1----1--1--1-----|--------------------------|
--L--2--2----2--2--2--0--|--L--0--0----0--0--0--5--|--L--5--5----5--5--5--10--|
--L--2--2----2--2--2--2--|--L--2--2----2--2--2--4--|--L--4--4----4--4--4--10--|
--L--0--0----0--0--0--3--|--L--3--3----3--3--3--5--|--L--5--5----5--5--5---8--|
-------------------------|-------------------------|--------------------------|


   E   E  E  Q    E  E  E     E  E  Q    E  E  E  E     E  E  Q    E  E  E  E
---------------------------|-------------------------|-------------------------|
------------------------1--|--L--1--1----1--1--1--1--|--L--1--1----1--1--1-----|
---L--10-----9----9-----2--|--L--2--2----2--2--2--0--|--L--0--0----0--0--0--5--|
---L--10-----9----9-----2--|--L--2--2----2--2--2--2--|--L--2--2----2--2--2--4--|
---L---8-----7----7-----0--|--L--0--0----0--0--0--3--|--L--3--3----3--3--3--5--|
---------------------------|-------------------------|-------------------------|


  E  E  Q    E  E  E   E      E   E  E  Q    E  E  E
--------------------------|---------------------------|
--------------------------|------------------------1--|
--L--5--5----5--5--5--10--|---L--10-----9----9-----2--|
--L--4--4----4--4--4--10--|---L--10-----9----9-----2--|
--L--5--5----5--5--5---8--|---L---8-----7----7-----0--|
--------------------------|---------------------------|


  E  E  Q    E  E  E  E     E  E  Q    E  E  E  E     E  E  Q    E  E  E   E
-------------------------|-------------------------|--------------------------|
--L--1--1----1--1--1--1--|--L--1--1----1--1--1-----|--------------------------|
--L--2--2----2--2--2--0--|--L--0--0----0--0--0--5--|--L--5--5----5--5--5--10--|
--L--2--2----2--2--2--2--|--L--2--2----2--2--2--4--|--L--4--4----4--4--4--10--|
--L--0--0----0--0--0--3--|--L--3--3----3--3--3--5--|--L--5--5----5--5--5---8--|
-------------------------|-------------------------|--------------------------|


   E   E  E  Q    E  E  E     E  E  Q    E  E  E  E     E  E  Q    E  E  E  E
---------------------------|-------------------------|-------------------------|
------------------------1--|--L--1--1----1--1--1--1--|--L--1--1----1--1--1-----|
---L--10-----9----9-----2--|--L--2--2----2--2--2--0--|--L--0--0----0--0--0--5--|
---L--10-----9----9-----2--|--L--2--2----2--2--2--2--|--L--2--2----2--2--2--4--|
---L---8-----7----7-----0--|--L--0--0----0--0--0--3--|--L--3--3----3--3--3--5--|
---------------------------|-------------------------|-------------------------|


  E  E  Q    Q    Q       Q    Q    Q    Q       Q    Q    Q    Q
-----------------------|----------------------|----------------------|
-----------------------|----------------------|----------------------|
--L--5--5----5----5----|--7----7----7----7----|--7----7----7----7----|
--L--4--4----4----4----|--6----6----6----6----|--6----6----6----6----|
--L--5--5----5----5----|--7----7----7----7----|--7----7----7----7----|
-----------------------|--0----0----0----0----|--0----0----0----0----|


  H        H
--------------------||
--------------------||
--7-----------------||
--6-----------------||
--7-----------------||
--0-----------------||


Duration Legend
---------------
W - whole
H - half
Q - quarter
E - 8th
S - 16th
T - 32nd
X - 64th
. - note dotted
|-n-|  - n-tuplets


Tablature Legend
----------------
L - tied note
x - dead note
g - grace note
(n) - ghost note
> - accentuded note
NH - natural harmonic
AH - artificial harmonic
TH - tapped harmonic
SH - semi harmonic
PH - pitch harmonic
h - hammer on
p - pull off
b - bend
br - bendRelease
pb - preBend
pbr - preBendRelease
brb - bendReleaseBend
\n/ - tremolo bar dip
\n - tremolo bar dive
-/n - tremolo bar Release up
/n\ - tremolo bar inverted dip
/n - tremolo bar return
-\n - tremolo bar Release down
S - shift slide
s - legato slide
/ -  slide into from below or out of upwards
\ -  slide into from above or out of downwards
~ - vibrato
W - wide vibrato
tr - trill
TP - tremolo picking
T - tapping
S - slap
P - pop
< - fade in
^ - brush up
v - brush down

----------------------------------------------------------------------------

That's it.





Comments


Popular Gatsbys American Dream tabs & chords
Fable Bass Tabs
Margaritas And Cock Bass Tabs
My Name Is Ozymandias Bass Tabs
White Mountains Bass Tabs
Red, Red, Blue Chords
Giants Drink Tabs
Giants Drink 1 Tabs
Me Ed Loyce Tabs
My Name Is Ozymandias Tabs
The Badlands Ukulele


Song lyrics



↑ Back to top | Tablatures and chords are parodies/interpretations of the original songs. You may use it for private study, scholarship, research or language learning purposes only
© 2014 AZChords.com Contact us | Privacy policy | DMCA | Add/correct tabs | Request tabs | Top 50 tabs