>
 >
My Name Is Ozymandias

My Name Is Ozymandias Guitar Tabs

Gatsbys American Dream - My Name Is Ozymandias chords, tabs, tablatures, lyrics

Guitar lessons | Add/correct | Request | Top 50 tabs Artists:  A B C D E F G H I J K L M N O P Q R S T U V W X Y Z 0-9

My Name Is Ozymandias Guitar Tabs – Gatsbys American Dream

CD, Sheet music, Poster

Do you like My Name Is Ozymandias? Share with your friends now
Bass TabsTabs
MY NAME IS OZYMANDIAS

\ slide
~ let notes ring out

verse/intro
e--------------------------------------------|
B--------------------------------------------|
G--------------------------------------------|
D--------------------------------------------|
A-----------7-7h8-7--------------------------|
E--0-5-5\\------------5-4-0----0-1-0-1-0-1---|

e-----------------------------------------|
B-----------------------------------------|
G-----------------------------------------|
D---------------------7\\---7-8-7-8-7-----|
A---------7-7h8-7-5-4-----------------8---|
E--5-5\\----------------------------------|

chorus
e-----------------------------------------|
B----5---5---5---5---1---1---0---0--------|
G----5---5---5---5---2---2---1---1--------|
D-----------------------------------------|
A-----------------------------------------|
E--5---5---4---4---1---1---0---0----------|
"kill all my hunger..." (piano part on guitar)

e--5-555-5-5-------------------------------|
B--6-666-6-6-------------------------------|
G--7-777-7-7-------------------------------|
D--7-777-7-7--66-66--2-222-3-2--2-222-3-2--|
A--5-555-5-5--77-77--2-222-2-2--2-222-2-2--|
E-------------44-44--0-000-0-0--0-000-0-0--|

e-----------------------------------------|
B----5---5---5---5---1---1---0---0--------|
G----5---5---5---5---2---2---1---1--------|
D-----------------------------------------|
A-----------------------------------------|
E--5---5---4---4---1---1---0---0----------|

e--5-555-5-5---------------------------------|
B--6-666-6-6---------------------------------|
G--7-777-7-7---------------------------------|
D--7-777-7-7--66-66--2-222-3-2--2-222-3-2----|
A--5-555-5-5--77-77--2-222-2-2--2-222-2-2----|
E-------------44-44--0-000-0-0--0-000-0-0--1-|

breakdown part
e-----------------------------------------|
B-----------------------------------------|
G-----------------------------------------|
D-----------------------------------------|
A---------------------------6~~-7~~-------|
E--5~~--4~~-1~~-0~~-1~~-0~~---------------|


guitar solo?
e------------------------------------------------------------|
B--6-6-6-x-6\8-----------------6-6-6-x-6\8-------------------|
G--x-x-x-7---------------------x-x-x-7-----------------------|
D--7-7-7-7----------------11---7-7-7-7-----------1111111111--|
A--5-5-5-5-------7-----10------5-5-5-5-------7---1010101010--|
E--------------6---0-9---------------------6---0-9-9-9-9-9---|

e--------------------------------------------------------|
B--6-6-6-x-6\8--------------------6-6-6-x-6\8------------|
G--x-x-x-7------------------------x-x-x-7----------------|
D--7-7-7-7-----------1111111111---7-7-7-7------8-7-------|
A--5-5-5-5-------7---1010101010---5-5-5-5----------8-7---|
E--------------6---0-9-9-9-9-9---------------------------|


e--5-5--------------------------------------|
B--6-6--------------------------------------|
G--7-7--------------------------------------|
D--7-7---8~--11~----------------------------|
A--5-5---7~--10~----------------------------|
E--------6~--9-~----------------------------|
"for we may perish..."

e----------------------------------------------------|
B----------------------------------------------------|
G--------------------------------------777-666-------|
D----------------------------------------------------|
A----------------------------------------------------|
E--6666-10-6-5-5-59595--6666-10/13-5-5---------------|

e----------------------------------------------------|
B----------------------------------------------------|
G--------------------------------------7-6-----------|
D----------------------------------------------------|
A----------------------------------------------------|
E--6666-10-6-5-5-59595--6666-10/13-5-5---------------|

e-----------------------------------------|
B-----------------------------------------|
G------7-6-----7-6------------------------|
D-----------------------------------------|
A-----------------------------------------|
E--6-5-----6-5-----6-5-1-0----------------|

e-----------------------------------------|
B-----------------------------------------|
G------------------------------2-3-2------|
D----------------------------5-------3----|
A--------------------------4--------------|
E-----------------------------------------|
    (bass solo)
"we're being drowned out..."

e--5--5--5----------------------------------|
B--6--6--6--5-------------------------------|
G--7--7--7--5------2-3-2--------------------|
D--7--7--8--5----5-------3------------------|
A--5--5--5--3--4----------------------------|
E-------------------------------------------|
"when i'm weak..."

e----------------------------------------------------|
B----------------------------------------------------|
G--------------------------------------777-666-------|
D----------------------------------------------------|
A----------------------------------------------------|
E--6666-10-6-5-5-59595--6666-10/13-5-5---------------|

e----------------------------------------------------|
B----------------------------------------------------|
G--------------------------------------7-6-----------|
D----------------------------------------------------|
A----------------------------------------------------|
E--6666-10-6-5-5-59595--6666-10/13-5-5---------------|

e-----------------------------------------|
B-----------------------------------------|
G------7-6-----7-6------------------------|
D-----------------------------------------|
A-----------------------------------------|
E--6-5-----6-5-----6-5-1-0~~--------------|

e----------|
B----------|
G----------|
D--2~~-----|
A--1~~-----|
E--0~~-----|
"and we all sound like this..."





Comments


Popular Gatsbys American Dream tabs & chords
Fable Bass Tabs
Margaritas And Cock Bass Tabs
My Name Is Ozymandias Bass Tabs
White Mountains Bass Tabs
The Badlands Chords
Cut The Strings Tabs
Giants Drink 1 Tabs
Me Ed Loyce Tabs
Red Red Blue Ukulele
The Badlands Ukulele


Song lyrics



↑ Back to top | Tablatures and chords are parodies/interpretations of the original songs. You may use it for private study, scholarship, research or language learning purposes only
© 2014 AZChords.com Contact us | Privacy policy | DMCA | Add/correct tabs | Request tabs | Top 50 tabs