» » »

Gatsbys American Dream, Fable Bass tabs (ver.1)

Artists:  A B C D E F G H I J K L M N O P Q R S T U V W X Y Z # 

Fable Bass tabs (ver.1)

Gatsbys American Dream Tabs
 Rating:
4/5 (5 votes)
Fable lessons Tabs too difficult? Try these video lessons and learn fast
                Intro
G---
D---
A---10x16---9x16---8x16---7x16---6x16---(I like to slide up to 10x16, but I think that 
is what he's playing)---4x16---3x16
E---

We landed in this place...
G------------------------------------------------------------------|
D----------------------5-7-9-7-5-----------------------------------|
A---3x7--3x7---------7-----------7---3x7--3x7----------------------|
E--------------0x7------------------------------0x7--0x8-----------|

We came here on a plane...
G-----------------------------------------------------------------------------------------------|
D-------------------------------------------------5-7-9-7-5---------------------7h9p7-----------|
A---33-33-66-66\---------------3x7--3x7--------7-------------7---3x7--3x7-------------10-9-7h9--|
E-----------------00--00--00-------------0x7------------------------------0x7-------------------|

We came here on a plane (again)...
G-------------------------------------------------------------------------------|
D-------------------------------------------------------------------------------|
A---10x16---9x16---8x16--33-33-66-66\---------(77-1010-55-66-x4)----------------|
E-------------------------------------00--00------------------------------------|

G---
D---
A---10x16---9x16---8x16---7x16---6x16---10x16 or 5x16---4x16---3-3-3-333-3-3333
E---

We came here on a plane (again)...
G--------------------------------------------------------------------------------|
D--------------------------------------------------------------------------------|
A---33-33-66-66\---10x16---9x16---8x16--33-33-66-66\---------(77-1010-55-66-x4)--|
E----------------------------------------------------------------00--00----------|
            
Submit corrections

comments powered by Disqus
↑ Back to top | Gatsbys American Dream Bass for Fable. Lyrics for acoustic guitar and electric guitar. Tablatures and chords are parodies/interpretations of the original songs. You may use it for private study, scholarship, research or language learning purposes only