» » »

Gatsbys American Dream, Cut The Strings Tabs (ver.1)

Artists:  A B C D E F G H I J K L M N O P Q R S T U V W X Y Z # 

Cut The Strings Tabs (ver.1)

Gatsbys American Dream Tabs
Rating:
5/5 (1 vote)
Cut The Strings lessons Tabs too difficult? Try these video lessons and learn fast
                
\  slide
~  let notes ring out
PM Palm Mute

verse/intro
e--------------------------------------------|
B---------------------------------------0----|
G----------------0---------------------------|
D----2-----0-0h2-----x3-----2-----0-0h2------|
A--0---0------------------0---0--------------|
E--------3----------------------3------------|
"this is, frustration, this is me..."


bridge 
    PM****** PM********  PM***           
e-----------------------------------0-00-0--0-00--------|
B-----------------------------------0-00-0--0-00--------|
G-----------------------------------2-22-2--2-22--------|
D---99999999-9--9--9--9--9999-------2-22-2--2-22-88------|
A---88888888-10-10-10-10-8888-------0-00-0--0-00-77------|
E------------------------------------------------66------|
"             I'm getting sick of it,      this is me..."

   PM****** PM********  PM***           
e-----------------------------------0-00-0--0-00--0-00--0--0-00-0--0----------|
B-----------------------------------0-00-0--0-00--0-00--0--0-00-0--0----------|
G-----------------------------------2-22-2--2-22--2-22--2--2-22-2--2----------|
D---99999999-9--9--9--9--9999-------2-22-2--2-22--2-22--2--2-22-2--3----------|
A---88888888-10-10-10-10-8888-------0-00-0--0-00--x-xx--x--x-xx-x--3----------|
E-------------------------------------------------3-33--3--2-22-2--1----------|
"             throwing pieces,     against the wall,          hoping something will stick"


verse
e--------------------------------------------|
B---------------------------------------0----|
G----------------0---------------------------|
D----2-----0-0h2-----x3-----2-----0-0h2------|
A--0---0------------------0---0--------------|
E--------3----------------------3------------|
"  awful, too think, who decides "

Now guitar 1 plays the verse riff palm muted, guitar 2 plays this:

e-----------------------------------------------|
B-----------------------------------------12\7--|
G--9\7/9/12-12----------9\7/9/12-12-------------| x2
D--------------14-12\9--------------14-12-------|
A-----------------------------------------------|
E-----------------------------------------------|
" what we should or should not say, what ends up"


    PM****** PM********  PM***           
e-----------------------------------0-00-0--0-00--------|
B-----------------------------------0-00-0--0-00--------|
G-----------------------------------2-22-2--2-22--------|
D---99999999-9--9--9--9--9999-------2-22-2--2-22-8------|
A---88888888-10-10-10-10-8888-------0-00-0--0-00-7------|
E------------------------------------------------6------|
"             on the cutting room floor, apparantly"

   PM****** PM********  PM***           
e-----------------------------------0-00-0--0-00--0-00--0--0-00-0--0----------|
B-----------------------------------0-00-0--0-00--0-00--0--0-00-0--0----------|
G-----------------------------------2-22-2--2-22--2-22--2--2-22-2--2----------|
D---99999999-9--9--9--9--9999-------2-22-2--2-22--2-22--2--2-22-2--3----------|
A---88888888-10-10-10-10-8888-------0-00-0--0-00--x-xx--x--x-xx-x--3----------|
E-------------------------------------------------3-33--3--2-22-2--1----------|
"             its not my, its not my choice to make"



e--0----------------------------------------|
B--0----------------------------------------|
G--2---12-12---10-10-9-9-9--9-9-------------|
D--2---12-12---10-10-101010-1010------------|
A--0---10-10-\-8--8--8-8-8--8-8-------------|
E------------------------------------------|
"      so heres another one..."

e--0--------------00-0-0-----0--------------00-0-0--0-0-0----|
B--0---5p3p0------00-0-0-----0---5p3p0------00-0-0--0-0-0----|
G--2---------5p0--22-2-2-----2---------5p0--22-2-2--1-1-1----|
D--2--------------33-3-3-----2--------------33-3-3--2h3p2----|
A--0--------------33-3-3-----0--------------33-3-3--2-2-2----|
E-----------------11-1-1--------------------11-1-1--0-0-0----|
"  is it good enough?        please do accept       i need this"



bridge
   PM**
e-----------------------------------------------------------------|
B-----------------------------------------------------------------|
G-----------------------------------------------------------------| x2
D--7-7---10-9--7--6--5--4--3-3\2\1--1/2/3--3\2\1-1----------------|
A--7-7---0--0--0--0--0--0--0-0-0-0--0-0-0--0-0-0-0----------------|
E--5-5------------------------------------------------------------|

e-------------------------------------------------------------------------------|
B-------------------------------------------------------------------------------|
G-------------------------------------------------------------------------------| x2
D--------0-0-0-0-----0-0----------0-0-0-0-----0-0-----------1p0-----------1p0---|
A---/8^--0-0-0-0--h7-0-0-----/8^--0-0-0-0--h7-0-0---0-0-3p0-----3p0-0-3p0-----0-|
E-------------------------------------------------------------------------------|


e--0-0--0-0-0--0--------------------------------------------------------------------------|
B--0-0--0-0-0--0---1-1--1-1-1--1----------------------------------------------------------|
G--2-2--2-2-2--2---2-2--2-2-2--2----------------------------------------------------------|
D--3-3--3-3-3--3---2-2--2-2-2--2--x2---33-33-33-33/44-44--33-33-33-33/44-44--66-66--------|
A--3-3--3-3-3--3---0-0--0-0-0--0-------33-33-33-33/33-33--33-33-33-33/33-33--66-66--------|
E--1-1--1-1-1--1-----------------------11-11-11-11/22-22--11-11-11-11/22-22--44-44--------|
"If its not up to par i just..."       "lets forget about who we are"


e--0----------------------------------------|
B--0----------------------------------------|
G--2---12-12---10-10-9-9-9--9-9-------------|
D--2---12-12---10-10-101010-1010------------|
A--0---10-10-\-8--8--8-8-8--8-8-------------|
E-------------------------------------------|
"      so heres another one..."

e--0--------------00-0-0-----0--------------00-0-0--0-0-0----|
B--0---5p3p0------00-0-0-----0---5p3p0------00-0-0--0-0-0----|
G--2---------5p0--22-2-2-----2---------5p0--22-2-2--1-1-1----|
D--2--------------33-3-3-----2--------------33-3-3--2h3p2----|
A--0--------------33-3-3-----0--------------33-3-3--2-2-2----|
E-----------------11-1-1--------------------11-1-1--0-0-0----|
"  is it good enough?        please do accept       i need this"

e--------------------------------------------|
B---------------------------------------0----|
G----------------0---------------------------|
D----2-----0-0h2-----x3-----2-----0-0h2------|
A--0---0------------------0---0--------------|
E--------3----------------------3------------|
"this is, frustration..."
            
Submit corrections

comments powered by Disqus
↑ Back to top | Gatsbys American Dream Tabs for Cut The Strings. Lyrics for acoustic guitar and electric guitar. Tablatures and chords are parodies/interpretations of the original songs. You may use it for private study, scholarship, research or language learning purposes only