» » »

Every Day I Tabs (ver.1)

Artists:  A B C D E F G H I J K L M N O P Q R S T U V W X Y Z # 

Every Day I Tabs (ver.1)

Gateway Worship
Rating:
0/5 (0 votes)

Hard to play? Try these video lessons and learn fast.
                (Live)
------------------------------------------------------------------------------
------------------------------------------------------------------------------

Intro:  (x2)    (palm muted)
e|-------------------------------------------------------------------------|
B|----------5-4---------------5-4---------------5-4---------------7-4------|
G|--4-6-4-6-----6-4---4-6-4-6-----6-4---4-6-4-6-----6-4---------------6-4--|
D|--------------------------------------------------------4-6-4-6----------|
A|-------------------------------------------------------------------------|
E|-------------------------------------------------------------------------|

Chorus (1st Time Only):
e|--------------------------------------------------------------|
B|------7-----7--------7-----7-----4-------------4--------------|
G|--4-4---4-4---4-4--4---4-4---4-6---6-4-----4-6---6-4----------|
D|---------------------------------------6-6-----------6-6-(6)--| (x2)
A|--------------------------------------------------------------|
E|--------------------------------------------------------------|

Intro 2:
e|---------------------------------------------------------------|     -11\-|
B|---------------------------------------------------------------|     -12\-|
G|----------11-----11-------11-----11----6/8\6p4----4-6/8\6p4----|     -11\-|
D|--(6)/9-9----9-9----9-8-8----8-8----8----------6------------6--|(x2) -----|
A|---------------------------------------------------------------|     -----|
E|---------------------------------------------------------------|     -----|

Verse:  (start at "Every Heart Beat...")     [with dotted eighth delay]
e|---------------------------|      ----------------------------|
B|-----------12-11-----------|      -----------12--12-12-12-12--|
G|-----------------13-11-----|      ---------------11-11-11-11--|
D|--11-11-13-------------13--|(x7)  --11-11-13------------------|
A|---------------------------|      ----------------------------|
E|---------------------------|      ----------------------------|

Chorus: (x2)
e|-------14-------14-----------14-------14--------11--------------11-----------|
B|-12-12----12-12----12-12--12----12-12----12--14----14-12-----14----14-12-----|
G|---------------------------------------------------------13-------------13---|
D|-----------------------------------------------------------------------------|
A|-----------------------------------------------------------------------------|
E|-----------------------------------------------------------------------------|

To Bridge:
e|--------------------------------------|
B---------------------------------------|
G|--4---3-4-----------4--4-4-4--6-6--9--|
D|----------4-6-------------------------|
A|--------------4-6---------------------|
E|--------------------------------------|

Bridge:
  (x12)            (x12)         (x12)          (x16)
e|------------------------------------------------------|
B|--0---0--0--0--0---0---0-0-0-0---0----0-0-0-0---------|
G|--9--11-11-11-11---8---6-6-6-6---8----6-6-6-6---6-----|
D|------------------------------------------------8-----|
A|------------------------------------------------------|
E|------------------------------------------------------|

  (x12)            (x12)         (x12)          (x16)
e|------------------------------------------------------|
B|--0---0--0--0--0---0---0-0-0-0---0----0-0-0-0---------|
G|--9--11-11-11-11---8---6-6-6-6---8----6-6-6-6---6-----|
D|------------------------------------------------8--9--|
A|------------------------------------------------------|
E|------------------------------------------------------|

Outro:
e|-----------------------------------------------------------|
B|-----------------------------------------------------------|
G|------11-----11-------11-----11----6/8\6p4----4-6/8\6p4----|
D|--9-9----9-9----9-8-8----8-8----8----------6------------6--|
A|-----------------------------------------------------------|
E|-----------------------------------------------------------|

e|-------14-------14-----------14-------14--------11--------------11-----------|
B|-12-12----12-12----12-11--11----11-11----11--14----14-12-----14----14-12-----|
G|---------------------------------------------------------13-------------13---|
D|-----------------------------------------------------------------------------|
A|-----------------------------------------------------------------------------|
E|-----------------------------------------------------------------------------|

e|--14--|
B|--12--|
G|--11--|
D|------|
A|------|
E|------|
            
Hard to play? Try these video lessons and learn fast. | Correct




comments powered by Disqus
↑ Back to top | Tablatures and chords are parodies/interpretations of the original songs. You may use it for private study, scholarship, research or language learning purposes only