>
 >
Wounds

Wounds Guitar Tabs

Gates Of Ishtar - Wounds chords, tabs, tablatures, lyrics

Guitar lessons | Add/correct | Request | Top 50 tabs Artists:  A B C D E F G H I J K L M N O P Q R S T U V W X Y Z 0-9

Wounds Guitar Tabs – Gates Of Ishtar

CD, Sheet music, Poster

Do you like Wounds? Share with your friends now
Tabs

Ver. 1.0 (99/12/03)

Explanation of a sign
        h : hammer on             p : pull on
        g : grissando             s : slide
        c,hc,1hc : bend           ^ : tie

Tuning : 1 down (6 : D)


Part A - 4 times Repeat
#||---------------------------------------|--------------------------------------|
#||---------------------------------------|--------------------------------------|
#||o--------------------------------------|-----------------o-/------------------|
#||o--------------------------------------|------------------/-o-----------------|
#||---7--------------------------7--p5----|--------------------------------------|
#||------------0---0----0---0-------------|--------------------------------------|
      1        2        3        4           1        2        3        4


|--------------------------------------|--------------------------------------|
|--------------------------------------|--------------------------------------|
|--------------------------------------|--------------------------------------|
|--------------------------------------|--------------------------------------|
|--3-----------------3-----------------|--5-----------------5--------6--------|
|-----------0---0-------------0---0----|-----------0---0----------------------|
   1        2        3        4        |  1        2        3        4        |
                                       |                                      |
                                       |                                      |
                                       |--------------------------------------|
                                       |--------------------------------------|
                                       |--------------------------------------|
                                       |--------------------------------------|
                                       |--5-----------------5--------2--------|
                                       |-----------0---0----------------------|
                                          1        2        3        4


|--------------------------------------|--------------------------------------|
|--------------------------------------|--------------------------------------|
|--------------------------------------|-----------------o-/------------------|
|--------------------------------------|------------------/-o-----------------|
|--7--------------------------7--p5----|--------------------------------------|
|-----------0---0----0---0-------------|--------------------------------------|
   1        2        3        4           1        2        3        4


|--------------------------------------|---------------------------------------||#
|--------------------------------------|------------__3__----------------------||#
|--------------------------------------|-----------|--|--|--------------------o||#
|--------------------------------------|--5--------4-h5-p4--------------------o||#
|--3-----------------3-----------------|--------------------7--------6---------||#
|-----------0---0-------------0---0----|---------------------------------------||#
   1        2        3        4        |  1        2        3        4         ||
                                       |                                       ||
                                       |                                       ||
                                       |---------------------------------------||#
                                       |---------------------------------------||#
                                       |------------__3__---------------------o||#
                                       |-----------|--|--|--------------------o||#
                                       |--5--------5-h7-p5--3--------2---------||#
                                       |---------------------------------------||#
                                          1        2        3        4  (End of Part A)




Part A' Aのハモり
イントロの3回目からと、最初の歌の2回目からで出てくる
#||---------------------------------------|--------------------------------------|
#||---------------------------------------|--------------------------------------|
#||o--------------------------------------|-----------------o-/------------------|
#||o--5--------------------------5--p4----|------------------/-o-----------------|
#||---------------------------------------|--------------------------------------|
#||------------0---0----0---0-------------|--------------------------------------|
      1        2        3        4           1        2        3        4


|--------------------------------------|---------------------------------------||#
|--------------------------------------|---------------------------------------||#
|--------------------------------------|--------------------------------------o||#
|--------------------7--------7--p5----|--4--------5--h7----5--------4--------o||#
|--7-----------------------------------|---------------------------------------||#
|-----------0---0----------------------|---------------------------------------||#
   1        2        3        4           1        2        3        4    (End of Part A')




Part B - 4 times Repeat
#||---------------------------------------|--------------------------------------|
#||---------------------------------------|--------------------------------------|
#||o-×2以降------------------------------|--------------------------------------|
#||o-(5)----------------------------------|--------------------5--------4--------|
#||---2-----------------------------------|-----------2--------------------------|
#||---0-----------------------------------|--------------------------------------|
      1        2        3        4           1        2        3        4


|--------------------------------------|---------------------------------------||#
|--------------------------------------|---------------------------------------||#
|--------------------------------------|--------------------------------------o||#
|--5--------------------------5--s7----|--5-----------------4-----------------o||#
|--3-----------------------------------|---------------------------------------||#
|--------------------------------------|---------------------------------------||#
   1        2        3        4           1        2        3        4    (End of Part B)


Play Part A - 4 times Repeat


Part C - 4 times Repeat
#||----------------------------------------|---------------------------------------|
#||----------------------------------------|---------------------------------------|
#||o------------------------------__3__----|------------------------------__3__----|
#||o-----------------------------|--|--|---|-----------------------------|--|--|---|
#||---7--------------------------7-h9-h10--|-----------------------------9-h10h12--|
#||------------0---0----0---0--------------|--8--------8---8----8---8--------------|
      1        2        3        4            1        2        3        4
                                        _________________
                                       |1.3.
|--------------------------------------|---------------------------------------||
|--------------------------------------|---------------------------------------||
|--------------------------------------|--------------------------------------o||
|--------------------------------------|--------------------------------------o||
|--5--------5---5----5---5----5--------|--5-----------------9------------------||
|--------------------------------------|---------------------------------------||
   1        2        3        4        |  1        2        3        4         ||
                                       |                                       ||
                                       |                                       ||
                                       |---------------------------------------||
                                       |---------------------------------------||
                                       |--------------------------------------o||
                                       |--------------------------------------o||
                                       |--2-----------------5------------------||
                                       |---------------------------------------||
                                          1        2        3        4
 _______________
|2.4.
|---------------------------------------||#
|---------------------------------------||#
|--------------------------------------o||#
|--------------------------------------o||#
|--7-----------------6------------------||#
|---------------------------------------||#
|  1        2        3        4         ||
|                                       ||
|                                       ||
|---------------------------------------||#
|---------------------------------------||#
|--------------------------------------o||#
|--------------------------------------o||#
|--3-----------------2------------------||#
|---------------------------------------||#
   1        2        3        4    (End of Part C)




Part D - 8 times Repeat
#||-----------------------------------------||#
#||-----------------------------------------||#
#||o---------------------------------------o||#
#||o---------------------------------------o||#
#||---10------------------------------------||#
#||-------0-0--0---0-0--0---0-0--0---0-0----||#
 ||   1        2        3        4          ||
 ||                                         ||
 ||                                         ||
#||-----------------------------------------||#
#||-----------------------------------------||#
#||o---------------------------------------o||#
#||o--9------------------------------------o||#
#||-----------------------------------------||#
#||-------0-0--0---0-0--0---0-0--0---0-0----||#
      1        2        3        4    (End of Part D)




Part E - 4 times Repeat
#||---------------------------------------|----------------------------------------||#
#||---------------------------------------|--------------------------3-------------||#
#||o--------------------------------------|------------------------|=|=|----------o||#
#||o-----------5-----------------7--------|-----------5---9----7---5h7p5-4--------o||#
#||------g3----------------g5-------------|-----g7---------------------------5-----||#
#||---0-----------------0-----------------|--0-------------------------------------||#
      1        2        3        4           1        2        3         4    (End of Part E)




Part F - 4 times Repeat
#||---------------------------------------|--------------------------------------|
#||---------------------------------------|--------------------------------------|
#||o--------------------------------------|--------------------------------------|
#||o--5-----------------4-----------------|--5-----------------------------------|
#||---------------------------------------|--------------------------------------|
#||---------------------------------------|--------------------------------------|
      1        2        3        4           1        2        3        4         


|--------------------------------------|---------------------------------------||#
|--------------------------------------|---------------------------------------||#
|--------------------------------------|--------------------------------------o||#
|--5-----------------4-----------------|--5-----------------------------------o||#
|--------------------------------------|---------------------------------------||#
|--------------------------------------|------0-0--0---0-0--0---0-0--0---0-0---||#
   1        2        3        4           1        2        3        4    (End of Part F)


Play Part A - 3 times Repeat

Play Part C - 4 times Repeat

Play Part B - 4 times Repeat


Part G - 4 times Repeat
#||---------------------------------------|--------------------------------------|
#||---------------------------------------|--------------------------------------|
#||o--------------------------------------|--------------------------------------|
#||o--9-7-5-------------------------------|--9-7-5-------------9--------7--------|
#||---------9--7-5-7----------------------|--------9--7-5-7----------------------|
#||---------------------------------------|--------------------------------------|
 ||   1        2        3        4        |  1        2        3        4        |
 ||                                       |                                      |
 ||                                       |                                      |
#||---------------------------------------|--------------------------------------|
#||---------------------------------------|--------------------------------------|
#||o--------------------------------------|--------------------------------------|
#||o--------------------------------------|--5-----------------5--------4--------|
#||---2-----------------------------------|--3-----------------5--------5--------|
#||---0-----------------------------------|--------------------------------------|
      1        2        3        4        |  1        2        3        4         


|--------------------------------------|---------------------------------------||#
|--------------------------------------|---------------------------------------||#
|--------------------------------------|--------------------------------------o||#
|--9-7-5-------------------------------|--9-7-5-------------5--------4--------o||#
|--------9--7-5-7----------------------|--------9--7-5-7-----------------------||#
|--------------------------------------|---------------------------------------||#
|  1        2        3        4        |  1        2        3        4         ||
|                                      |                                       ||
|                                      |                                       ||
|--------------------------------------|---------------------------------------||#
|--------------------------------------|---------------------------------------||#
|--------------------------------------|--------------------------------------o||#
|--------------------------------------|--5-----------------5--------4--------o||#
|--2-----------------------------------|--3-----------------5--------5---------||#
|--0-----------------------------------|---------------------------------------||#
   1        2        3        4        |  1        2        3        4   (End of Part G)


Play Part A - 3 times Repeat


Part H - 4 times Repeat
#||---------------------------------------|---------------------------------------||#
#||---------------------------------------|---------------------------------------||#
#||o------9--------9--------11-------11---|------12-------14---12--11------------o||#
#||o--10-------10-------12-------12-------|--14-------14----------------14--12---o||#
#||---------------------------------------|---------------------------------------||#
#||---------------------------------------|---------------------------------------||#
      1        2        3        4           1        2        3        4   (End of Part H)


Play Part E - 4 times Repeat

Play Part F - 1000 times Repeat


==== END OF TAB ====





Comments


Popular Gates Of Ishtar tabs & chords
At Dusk And Forever Tabs
Burning Sky Tabs
Eternal Sin Tabs
Forever Scarred Tabs
Innana Tabs
Trail Of Tears Tabs


Song lyrics



↑ Back to top | Tablatures and chords are parodies/interpretations of the original songs. You may use it for private study, scholarship, research or language learning purposes only
© 2014 AZChords.com Contact us | Privacy policy | DMCA | Add/correct tabs | Request tabs | Top 50 tabs