» » »

Gates Gareth, Too Serious Too Soon Tabs (ver.1)

Artists:  A B C D E F G H I J K L M N O P Q R S T U V W X Y Z # 

Too Serious Too Soon Tabs (ver.1)

Gates Gareth Tabs
 Rating:
4/5 (4 votes)
Too Serious Too Soon lessons Tabs too difficult? Try these video lessons and learn fast
1
                
This is my firs time writing a tab so bare with me...:D..this is one of my fav song,
this tab should sound nice.

|--------------|---------------------|-------|
|--------------|-----------------1---|-------|
|---2-2-2-0-2--|---2-2-2-0-2-0-2---2-|-------|
|--------------|---------------------|-------|
|-3------------|-3-------------------|-3-3-4-|
|--------------|---------------------|-------|
I wonder where |I wonfer what u'r    |I wonder...
u are..         thinking of tonight..

|------------|--------------------|-------|
|------------|----------------1---|-------|
|-2-2-2-0-2--|-2-2-2-0-2-0-2----2-|-------|
|------------|--------------------|-------|
|------------|--------------------|-3-3-4-|
|------------|--------------------|-------|
Maybe ur     |Maybe u've been     |I wonder...
alone...      cryin just like me..

|---------------------|-----|------------------|
|-------------1-------|-----|--------------1-1-|
|---3-3-3-2-3---3-2-0-|-0-2-|---3-3-3-2-3------|
|-2-------------------|-----|-2----------------|
|---------------------|-----|------------------|
|---------------------|-----|------------------|
I dunno y I lost ur   |Maybe|I wanted to be loved too much...
touch...

|---1-0---0-1-|-1-0-0-1-0-0---|-1-0-0-1-0-1-----------------|
|-1-----3-----|-------------3-|-----------------------1-----|
|-------------|---------------|-------------3-3-3-2-3---2-0-|
|-------------|---------------|-----------------------------|
|-------------|---------------|-----------------------------|
|-------------|---------------|-----------------------------|
Too serious   |I wanted u to  |I wanted to be there for u like no
too soon..     love me...      one else before...

|---1-0---0-1-|-5-3-3-5-3-3-0-|
|-1-----3-----|---------------|
|-------------|---------------|
|-------------|---------------|
|-------------|---------------|
|-------------|---------------|
Too serious   |I wanted u to love me...
too soon...

|-----------------|---------------|---------------------|
|-----------------|---------------|---------------------|
|-----------3-3-2-|---------3-3-2-|-------3-3-3-2-0-2-0-|
|-3-3-2-0-0-------|-3-2-0-0-------|-3-2-0---------------|
|-----------------|---------------|---------------------|
|-----------------|---------------|---------------------|
It's been a rainy |Now I'm staring|Tinhking we got too serious too soon..
afternoon..      .at the moon...

|--------------|---------------------|-------|
|--------------|-----------------1---|-------|
|---2-2-2-0-2--|---2-2-2-0-2-0-2---2-|-------|
|--------------|---------------------|-------|
|-3------------|-3-------------------|-3-3-4-|
|--------------|---------------------|-------|
I told u every-|I told u every night |I love you..
day..           in every way...

|------------|--------------------|---------|
|------------|----------------1---|---------|
|-2-2-2-0-2--|-2-2-2-0-2-0-2----2-|-0-------|
|------------|--------------------|---------|
|------------|--------------------|---3-3-4-|
|------------|--------------------|---------|
Maybe u got  |Maybe I've nothing  |But I love you..
scared..      else to say...

|--------------------|-----|-----------------|
|------------1-------|-----|-------------1-1-|
|--3-3-3-2-3---3-2-0-|-0-2-|--3-3-3-2-3------|
|--------------------|-----|-----------------|
|--------------------|-----|-----------------|
|--------------------|-----|-----------------|
Baby now my life's a |cuz I|Couldn't love you any less..
mess...

|---1-0---0-1-|-1-0-0-1-0-0---|-1-0-0-1-0-1-----------------|
|-1-----3-----|-------------3-|-----------------------1-----|
|-------------|---------------|-------------3-3-3-2-3---2-0-|
|-------------|---------------|-----------------------------|
|-------------|---------------|-----------------------------|
|-------------|---------------|-----------------------------|
Too serious   |I wanted u to  |I wanted to be there for u like no
too soon..     love me...      one else before...

|---1-0---0-1-|-5-3-3-5-3-3-0-|
|-1-----3-----|---------------|
|-------------|---------------|
|-------------|---------------|
|-------------|---------------|
|-------------|---------------|
Too serious   |I wanted u to love me...
too soon...

|-----------------|---------------|---------------------|
|-----------------|---------------|---------------------|
|-----------3-3-2-|---------3-3-2-|-------3-3-3-2-0-2-0-|
|-3-3-2-0-0-------|-3-2-0-0-------|-3-2-0---------------|
|-----------------|---------------|---------------------|
|-----------------|---------------|---------------------|
It's been a rainy |Now I'm staring|Tinhking we got too serious too soon..
afternoon..       .at the moon...

|-----|
|-----|
|-----|
|-----|
|-----|
|-0-1-|
Too soon...


|-------|-------|---------------------|
|-------|-------|---------------------|
|---3-2-|---3-2-|---3-2-0-3-2-3-2-2-0-|
|-2-----|-2-----|-2-------------------|
|-------|-------|---------------------|
|-------|-------|---------------------|
It's not|It's   |Missing u baby cuts like a knife...
right... not fair

|-------------------|
|-------------------|
|---------------3-2-|
|-----2-0-0-0-2-----|
|-4-3---------------|
|-------------------|
What if...u were the loved of my life...

|---1-0---0-1-|-1-0-0-1-0-0---|-1-0-0-1-0-1-----------------|
|-1-----3-----|-------------3-|-----------------------1-----|
|-------------|---------------|-------------3-3-3-2-3---2-0-|
|-------------|---------------|-----------------------------|
|-------------|---------------|-----------------------------|
|-------------|---------------|-----------------------------|
Too serious   |I wanted u to  |I wanted to be there for u like no
too soon..     love me...      one else before...

|---1-0---0-1-|-5-3-3-5-3-3-0-|
|-1-----3-----|---------------|
|-------------|---------------|
|-------------|---------------|
|-------------|---------------|
|-------------|---------------|
Too serious   |I wanted u to love me...
too soon...

|-----------------|---------------|---------------------|
|-----------------|---------------|---------------------|
|-----------3-3-2-|---------3-3-2-|-------3-3-3-2-0-2-0-|
|-3-3-2-0-0-------|-3-2-0-0-------|-3-2-0---------------|
|-----------------|---------------|---------------------|
|-----------------|---------------|---------------------|
It's been a rainy |Now I'm staring|Tinhking we got too serious too soon..
afternoon..       .at the moon...

|---1---1-0---0-1-|-1-0-0-1-0-1-----------------|
|-1---1-----3-----|-----------------------1-----|
|-----------------|-------------3-3-3-2-3---2-0-|
|-----------------|-----------------------------|
|-----------------|-----------------------------|
|-----------------|-----------------------------|
We got too serious|I wanted to be there for u like no
too soon..         one else before...


|---1-0---0-1-|-5-3-3-5-3-3-0-|
|-1-----3-----|---------------|
|-------------|---------------|
|-------------|---------------|
|-------------|---------------|
|-------------|---------------|
Too serious   |I wanted u to love me...
too soon...


|-----------------|---------------|-----------------------|
|-----------------|---------------|-----------------------|
|-----------3-3-2-|---------3-3-2-|---------3-3-3-2-0-2-0-|
|-3-3-2-0-0-------|-3-2-0-0-------|-3-2---0---------------|
|-----------------|---------------|-----------------------|
|-----------------|---------------|-----------------------|
It's been a rainy |Now I'm staring|Tinhking we got too serious too soon....
afternoon..       .at the moon...
            
Submit corrections

comments powered by Disqus
↑ Back to top | Gates Gareth Tabs for Too Serious Too Soon. Lyrics for acoustic guitar and electric guitar. 1 Tablatures and chords are parodies/interpretations of the original songs. You may use it for private study, scholarship, research or language learning purposes only