>
 >
Jacara

Jacara Guitar Tabs

Gaspar Sanz - Jacara chords, tabs, tablatures, lyrics

Guitar lessons | Add/correct | Request | Top 50 tabs Artists:  A B C D E F G H I J K L M N O P Q R S T U V W X Y Z 0-9

Jacara Guitar Tabs – Gaspar Sanz

CD, Sheet music, Poster

Do you like Jacara? Share with your friends now
Tabs
Gallardas - Gaspar Sanz (1640-1710)

*************************************************************************
this piece has been taken from Donald Sauter's Gaspar Sanz page -
"Gaspar Sanz - Selected works from Instruccion de Musica..." where
many more of Sanz's tabs may be found + info re playing them -

more tabs + lots of other guitar info can be found via his home page -

Donald's original tab was done in the spaces rather than on the lines
(using "_" rather than "-" between the notes) - this is explained at -

Ornaments are indicated in the tab as follows -
  "  =  trill (multiple twiddles from above) 
  ,  =  mordent (main note to lower neighbor and back up) 
  #  =  vibrato. 

*************************************************************************

Source:    Instruccion; tomo 2; page 3.

Tuning:    Baroque guitar (A D G B E).
Time sig:  C.

Fixes, modifications and comments (M=Measure; p=Place in measure; s=String):
M58 original had a bar line after beat 3.  Bar line has been removed here.
Where 2 simultaneous notes are shown here with vibrato, Sanz only wrote
one vibrato symbol, generally below the tablature staff.

IMPORTANT!  When playing on a modern guitar, continually ask yourself if
the piece is improved by adding or substituting the octave above any 4th-
or 5th-string note.  


Gallardas.                              GS23a: Page 1 of 2.

Baroque guitar (A D G B E).
Leading measures: 1 10 18 25 31 39.            Gaspar Sanz.

   
  | |   | | | |  | | | |   | | | |   | | | |  | |  | |  | |
----0|-,1------|-0------|--0------|--0---1--|-3----3--|-1---||
--3--|------1--|-1---3--|-"2-----0|-"2---3--|-3---"2--|-3---||
-----|------2--|--------|------2--|---------|---------|-----||
-----|--0---3--|--------|---------|------0--|---------|-0---||
-----|---------|-3---1--|--0------|--0------|-1----0--|-----||
-----|---------|--------|---------|---------|---------|-----||

 ___ ___     ___   ___     ___ ___ ___       ___ ___        ___ 
 | | | |   | | | | | |   | | | | | | |   | | | | | |  | | | | |
-------0|-,1-3-1-0-1-0|------0-1------|--0---0------|-0---5----|
-3-2-3--|-------------|-#3-3----------|-"2-----3-2-0|-2---3----|
--------|-------------|-#3-----------0|-------------|---0---0--|
--------|--0----------|--------0-2-3--|-------------|-----3----|
--------|--------3----|---------------|--0----------|-0-------0|
--------|-------------|---------------|-------------|----------|

   ___   ___       ___ ___ ___    ___ ___ ___    ___ ___ ___  
 | | | | | |  |    | | | | | |  | | | | | | |  | | | | | | | 
-5-3---3----|-1-||------------|---1-0--------|---3-1-0------|
-3-----2-0-2|-3-||-1----------|-3-----3-1----|-3-------3-2-0|
-3---3-2----|---||---3-2-0----|-----------3-2|-3------------|
------------|-0-||---------3-2|-0------------|--------------|
------------|---||------------|--------------|--------------|
------------|---||------------|--------------|--------------|

   ___ ___ ___    ___ ___ ___    ___ ___ ___   
 | | | | | | |  | | | | | | |  | | | | | | |  | |
--------------|--------------|-0-5-3-1-0----|-1---||
---2-0--------|--------------|-----------3-2|-3---||
-2-----2-0----|---0----------|--------------|-----||
-----------3-2|-0---3-2-0----|--------------|-0---||
-0------------|-1---------3-1|-0------------|-----||
--------------|--------------|--------------|-----||

 ___ ___  ___ ___ ___ ___  ___ ___ ___ ___  
 | | | |  | | | | | | | |  | | | | | | | |
-5-3-1-0|-1-0-----0-3-1-0|----------------|
--------|-----3-1--------|-3-1------------|
--------|----------------|-----3-2-0------|
--------|-0--------------|-----------3-2-0|
--------|---------3------|-1--------------|
--------|----------------|----------------|

 ___ ___ ___ ___  ___ ___ ___ ___  ___ ___ ___ ___    
 | | | | | | | |  | | | | | | | |  | | | | | | | |  | |
-0--------------|----------------|-3-1-0----------|-1---||
----------------|----------------|-------3-1------|-3---||
---2-0----------|-2-3-2-0--------|-----------3-2-0|-----||
-------3-2-0----|---------3-2-0--|----------------|-0---||
-4-----------4-2|-0-------------3|-1--------------|-----||
----------------|----------------|----------------|-----||

      ___ ___ ___ ___  ___ ___ ___ ___
 | |  | | | | | | | |  | | | | | | | |
---0|-1--------------|-0---0-1--------|
-3--|-3---------0-1-3|---3-----3------|
----|-------0-2------|---------------0|
----|-0-2-3---3------|---------0-2-3--|
----|----------------|-3--------------|
----|----------------|----------------|

           ___ ___ ___ ___  ___ ___ ___ ___
  | | | |  | | | | | | | |  | | | | | | | |  | |
--0------|-5-------0---0-1|-3-------0-1-3-5|-----||
-"2-----0|-----------3----|-3--------------|-3---||
------2--|---------2------|-3-----0--------|-----||
---------|-------0-3------|---2-3----------|-0---||
--0------|-0-2-4----------|---------0------|-----||
---------|----------------|----------------|-----||

  |  |   | |   | |   | |  | |   | |  |  |   | |  | |   | |  | |    | |
-10-12|-13---#10--|-"8---"6--|-"9--------|--9---10--|------#9--|-#10---||
------|-10--------|----------|-10---10-10|-10----6--|-#8---#8--|-------||
------|------#10--|--9----7--|-----------|----------|--0-------|-#10---||
------|--0--------|----------|-----------|-------0--|-#8-------|---0---||
------|-----------|----------|--0--------|--0-------|-------0--|-------||
------|-----------|----------|-----------|----------|----------|-------||

 | |   | |  | |   | |  | |  | | | |   | | | |   | | | |   | |    | |
---0|-,1---"0-0|-#5---"3-3|-5------|---------|---------|-,1---||-5-3|
-3--|----------|-#5----3--|-2-----0|-"2---3--|--3---2--|--3---||----|
----|----------|-#5----3--|-----2--|------2-2|--0---0-0|------||----|
----|--0-------|----------|--------|---------|---------|--0---||----|
----|-------3--|----------|-0------|--0---1--|-,1---0--|------||----|
----|----------|----------|--------|---------|---------|------||----|

 ___ ___ ___ ___  ___ ___ ___ ___           ___ ___ ___ ___  ___ ___ ___ ___
 | | | | | | | |  | | | | | | | |  | | | |  | | | | | | | |  | | | | | | | |
-1-0------------|---------3-1-0--|-0------|-5-3-1-0-1-0----|-3-1-0---0------|
-----3-1-3------|-3-1-----------3|-2-----0|-------------3-1|-------3-2------|
----------------|-----3-2-3------|-----2--|---------2------|-3-------2-0----|
-0-------0------|----------------|--------|----------------|-------------3-2|
-----------3-1-0|-1--------------|-0------|-0--------------|----------------|
----------------|----------------|--------|----------------|----------------|

                    
 | |      | |   | | | |  | | | |   | | | |  | | | |  | | | |  | |                             
-----||------|-,1---0--|--------|--0------|-5---5-5|-3---3--|-1---||
-3---||---3--|--3------|-3---3--|-"2-----0|-5---3--|-3---2-2|-3---||
-----||------|------2-2|-2---0-0|---------|--------|--------|-----||
-0---||---0-2|--3------|--------|---------|-----3--|-2---2--|-0---||
-----||------|------3--|-1---1--|--0---0--|-4------|--------|-----||
-----||------|---------|--------|---------|--------|--------|-----||





Comments


Popular Gaspar Sanz tabs & chords
Canarios Tabs
Espaoleta Tabs
Gallardas Tabs
Las Hachas Tabs
Las Hachas 1 Tabs
Marizapalos Tabs
Sesquialtera Tabs
Suite De Antiguas Danzas Espanolas Iii - Pavana Tabs
Suite Espaola Ix - Canarios Tabs
Suite Espaola Vii - Folas Tabs


Song lyrics



↑ Back to top | Tablatures and chords are parodies/interpretations of the original songs. You may use it for private study, scholarship, research or language learning purposes only
© 2014 AZChords.com Contact us | Privacy policy | DMCA | Add/correct tabs | Request tabs | Top 50 tabs