>
 >
Pasko Na Sinta Ko

Pasko Na Sinta Ko Guitar Tabs

Gary Valenciano - Pasko Na Sinta Ko chords, tabs, tablatures, lyrics

Guitar lessons | Add/correct | Request | Top 50 tabs Artists:  A B C D E F G H I J K L M N O P Q R S T U V W X Y Z 0-9

Pasko Na Sinta Ko Guitar Tabs – Gary Valenciano

CD, Sheet music, Poster

Do you like Pasko Na Sinta Ko? Share with your friends now
ChordsChords v2TabsUkulele
Pasko na Sinta Ko

Arranged by: Harold D. Lladoc

Intro

   C                    G		 D                   G
-----------------------|----------------|-------------------|--------------------------|
-1-------1------0------|0---------------|-------------------|--------------------------|
-------------0-----1---|0-----0---------|-----2--2-----2--0-|-0-------0----------------|
------2----------------|---0---0--------|--0--------0-------|-----0-------0------------|
-3---------------------|-----------2----|-------------------|-----------------2--------|
-----------------------|3-------------3-|-------------------|-3------------------3---3-|

Stanza

       G                 D9/F#               D9/F		   C
-----------------------|-------------------|---------------------|----------------|
-----------------0---1-|-3-----------------|-------3-------1---0-|-1--------------|
-------0---------------|-2----2-----2------|----2------2---------|-0-----0--------|
-0--2-------0----------|----0----0------0--|---------------------|----2----2----2-|
----------2------------|-------------------|---------------------|-3----------3---|
-------3---------------|-2-----------------|-1-------------------|----------------|
Pas-ko Na       Sin-Ta   Ko                 Ha-nap ha-    nap  Ki-ta

C                    G                D9              G
-------------------|----------------|------------|------------------------------------|
-1-----1-----0-----|-0--------------|-----3---3--|------------------------------------|
----------0-----2--|-0-----0--------|-----2---2--|-----------------0------------------|
----2--------------|-----0----0-----|--0---------|-0---0-------0-------0--------------|
-3-----------------|-------------2--|------------|--------------------------2---------|
-------------------|-3-------------3|------------|-----3------------------------3---3-|
Bakit  nag  ta-tam  po?                Ni-li-san   a - ko

       G                 D9/F#               D9/F		   C
-------------------------|-------------------|---------------------|----------------|
-------------------0---1-|-3-----------------|-------3-------1---0-|-1--------------|
---------0---------------|-2----2-----2------|----2------2---------|-0-----0--------|
-0----2-------0----------|----0----0------0--|---------------------|----2----2----2-|
------------2------------|-------------------|---------------------|-3----------3---|
---------3---------------|-2-----------------|-1-------------------|----------------|

Kung ma-wa        wa-la    ka             sa   pi-  ling    ko  sin-ta

C                    G                D9              G
-------------------|----------------|------------|------------------------------------|
-1-----1-----0-----|-0--------------|-----3---3--|------------------------------------|
----------0-----2--|-0-----0--------|-----2---2--|-----------------0------------------|
----2--------------|-----0----0-----|--0---------|-0---0-------0-------0--------------|
-3-----------------|-------------2--|------------|--------------------------2---------|
-------------------|-3-------------3|------------|-----3------------------------3---3-|
Pa-   no    ang pas- kong             a-  lay ko   sa  yo


Chorus

      C                D			     D9/F#              Em
------0-----------0-|-----------------------------|-------------------|------------------|
-0-------------1----|--3-----------3-------0---1--|--3-----3----0-----|------------------|
------------0-------|--2-------2------2-----------|--2-----2-------2--|-0--------------0-|
---------2----------|--0---0------------0---------|------0---0--------|------------2-----|
------3-------------|-----------------------------|-------------------|-------2----------|
--------------------|-----------------------------|--2----------------|-0----------------|
Sa - Yang         Sin -ta                 ang  Si-  num  -         pa -an

       C               D9/F#			  G
----------------------|-------------------------|-----------------------------------|
-0--0--1---------0----|---------3-----------0---|--3--------------------------------|
-------------0------0-|-2----------2------------|---------0---------------------0---|
----------2-----------|-----0----------0--------|------0-----0---------------0------|
-------3--------------|-------------------------|---------------2-------------------|
----------------------|-2-----------------------|--3----------------3---3-----------|
At pag ti-      tingi-  nang               tu-    nay

      C                D			     D9/F#              Em
------0-----------0-|-----------------------------|-------------------|------------------|
-0-------------1----|--3-----------3-------0---1--|--3-----3----0-----|------------------|
------------0-------|--2-------2------2-----------|--2-----2-------2--|-0--------------0-|
---------2----------|--0---0------------0---------|------0---0--------|------------2-----|
------3-------------|-----------------------------|-------------------|-------2----------|
--------------------|-----------------------------|--2----------------|-0----------------|
Na - is         mo    bang                ka   li-  mu   tang     ga-   nap

       C               D9/F#			  G
----------------------|-------------------------|-----------------------------------|
-0--0--1---------0----|---------3-----------0---|--3--------------------------------|
-------------0------0-|-2----------2------------|---------0---------------------0---|
----------2-----------|-----0----------0--------|------0-----0---------------0------|
-------3--------------|-------------------------|---------------2-------------------|
----------------------|-2-----------------------|--3----------------3---3-----------|
ang a-ting      su-yu  an    at          ga-    lak

      G                 D9/F#               D9/F		   C
-------------------------|-------------------|---------------------|----------------|
-------------------0---1-|-3-----------------|-------3-------1---0-|-1--------------|
---------0---------------|-2----2-----2------|----2------2---------|-0-----0--------|
-0----2-------0----------|----0----0------0--|---------------------|----2----2----2-|
------------2------------|-------------------|---------------------|-3----------3---|
---------3---------------|-2-----------------|-1-------------------|----------------|
Kung ma-wa        wa-la    ka             sa   pi-  ling    ko  sin-ta

C                    G                D9              G
-------------------|----------------|------------|------------------------------------|
-1-----1-----0-----|-0--------------|-----3---3--|------------------------------------|
----------0-----2--|-0-----0--------|-----2---2--|-----------------0------------------|
----2--------------|-----0----0-----|--0---------|-0---0-------0-------0--------------|
-3-----------------|-------------2--|------------|--------------------------2---------|
-------------------|-3-------------3|------------|-----3------------------------3---3-|
Pa-   no    ang pas- kong             a-  lay ko   sa  yo

Repeat Stanza and chorus 2 more times
then repeat last line and end with any plucking in G major...


Chord Pattern


C             G             D             D9/F#
+-+-+-+-+-+   +-+-+-+-+-+   +-+-o-+-+-+   +-+-+-+-+-+
| | | | O |   | | | | | |   | | | | | |	  | | | | | |
+-+-+-+-+-+   +-+-+-+-+-+   +-+-+-+-+-+   +-+-+-+-+-+
| | O | | |   | O | | | |   | | | O | O	  O | | O | |
+-+-+-+-+-+   +-+-+-+-+-+   +-+-+-+-+-+	  +-+-+-+-+-+
| 0 | | | |   O | | | O O   | | | | O |	  | | | | O |
+-+-+-+-+-+   +-+-+-+-+-+   +-+-+-+-+-+	  +-+-+-+-+-+

D9/F          D9            Em
+-+-+-+-+-+   +-+-O-+-+-O   O-+-+-O-O-O
O | | | | |   | | | | | |   | | | | | |
+-+-+-+-+-+   +-+-+-+-+-+   +-+-+-+-+-+
| | | O | |   | | | O | |   | O O | | |
+-+-+-+-+-+   +-+-+-+-+-+   +-+-+-+-+-+
| | | | O |   | | | | O |   | | | | | |
+-+-+-+-+-+   +-+-+-+-+-+   +-+-+-+-+-+





Comments


Popular Gary Valenciano tabs & chords
I Will Be Here 1 Chords
In Another Lifetime Chords
Only Hope Chords
Pasko Na Sinta Ko Chords
Ikaw Lamang Tabs
Gaya Ng Dati Ukulele
I Will Be Here Ukulele
Sana Maulit Muli Ukulele
We Are The Reason Ukulele
When I Hear You Call Ukulele


Song lyrics



↑ Back to top | Tablatures and chords are parodies/interpretations of the original songs. You may use it for private study, scholarship, research or language learning purposes only
© 2014 AZChords.com Contact us | Privacy policy | DMCA | Add/correct tabs | Request tabs | Top 50 tabs