» » »

Ikaw Lamang Tabs (ver.1)

Artists:  A B C D E F G H I J K L M N O P Q R S T U V W X Y Z # 

Ikaw Lamang Tabs (ver.1)

Gary Valenciano
Rating:
5/5 (1 vote)

Tabs too difficult? Try these video lessons and learn fast.
                Popularized by: Gary Valenciano

Standard tuning: (EADGBE)
	

This song is for those who are in love.

(I suggest for a slow plucking)
 
Intro:
	    C					       Am
e|------------------------------------------0------------------------------|
B|----0--0--1----1---------1-------1--0--1-----3--1--0--1-----------1------|
G|-1------------------0---------0-----------------------2-----2------------|
D|----------2--2---2----2----2--------------------------2--2-----2---------|
A|----------3--------------------------------------------------------------|
E|-------------------------------------------------------------------------|

	                          F                           Bb     G7 
e|--------------------------------0-----------------------0-------1------1-|
B|------------1-----------1--0----0-----------0-----------1------3------0--|
G|------2--------2--1--2-------2--2-----2--------2--0--0--2-----3--3---0---|
D|---2-----2----------------------3--3-----3--------------3----3------0----|
A|--------------------------------3-----------------1-----3---1------2-----|
E|--------------------------------1--------------1--------1--1------3------|




Verse 1:
	C			Am
Ikaw lamang ang tangi kong iniisip
		F
Ang lagi kong panaginip
    Em7	    Am7	     D7		G7 pause
Tayo’ng dal’wa ang laging nagmamahalan

Verse 2:
	 C			Am
Pangarap ko na kailanma’y di maglaho
		  F
Ang pag-ibig kong ito
   Em7	   Am7	  D7	  	G7
Pagka’t hinding-hindi ko makakayang
	  Am
Mawalay sa’yo




Refrain:
		      Am
Ikaw lamang ang buhay ko
		     F
Sana giliw pakinggan mo
     Em7  Am7   Bb	   G7
Ang puso ko na mayroong sinasabi


Chorus:
        C			Am
Ikaw lamang ang tangi kong minamahal
		    F
Ang lagi kong dinarasal
   Em7    Am7    D7     	       G7 pause
Sana’y habang buhay tayong magkasama
	 C 		      Am
Ang puso ko ibibigay lamang sa’yo
		  F
Ito ang aking pangako
  Em7    Am7    Bb           G7 pause
Mula ngayon hanggang magpakailan pa man
	C
Ikaw lamang

Adlib: (do intro chords)

(Repeat Refrain)
(Repeat Chorus)

Coda:
	 C
Ikaw lamang
	 Am
Ikaw lamang
 Am pause   C
Ikaw lamang
            
Tabs too difficult? Try these video lessons and learn fast.




comments powered by Disqus
↑ Back to top | Tablatures and chords are parodies/interpretations of the original songs. You may use it for private study, scholarship, research or language learning purposes only