» » »

Gary Valenciano, How Did You Know Tabs (ver.1)

Artists:  A B C D E F G H I J K L M N O P Q R S T U V W X Y Z # 

How Did You Know Tabs (ver.1)

Gary Valenciano Tabs
 Rating:
4/5 (7 votes)
How Did You Know lessons Tabs too difficult? Try these video lessons and learn fast
1
                				*******HOW DID YOU KNOW******** 

	*** Ito nga pala ung accostic ng "how did you know" i make this tab with
my own version
sana mag-enjoy na lang kayo kung away nyo naman ok lang kahit di nyo magustuhan
pero kung meron kayong ibang  comments and corrections email nyo n lang
again enjoy na
lng kayo ha ******
	*** Kamusta na lang sa lahat ng friends ko sa lahat ng bata sa lahat
ng AlphaBe....... and lalo na kay RO.EM.BAG. sana mag kausap n tayo and sa
lahat
sagutin nyo na ang lahat ng nanliligay sa inyo kawawa na e kawawang-kawawa na
talaga - ARAY ANG SAKIT OUCH (JOKE LANG)***
	*** Tnx sa lahat ng tumulong sakin ******
	*** Cooming soon LAHAT NG SIKAT *******
	*** EXECUTEREB*******
-R.E.B.

intro :

E--3--------3------------2----------1-------------0---|----0--------|
B--3---------3---------3---3----------0---------------|----1--------|
G--4----------0------------------------0-------0------|----0--------|[2x]
D--5-----0----------4------------0------0-----2-------|----2--------|
A------2----------5------------2-------------3--------|----3--------|
E-----3-----------------------3-----------------------|-------------|


V1 & V2 :

E--3--------3------------2----------1-------------0------0----------------3-------------|
B--3---------3---------3---3----------0---------------------3--------------3------------|
G--4----------0------------------------0-------0-------5----------------0---0-----------|
D--5-----0----------4------------0------0-----2----------------5------0-----------------|
A------2----------5------------2-------------3-------3--------------2-------------------|
E-----3-----------------------3-----------------------------------3---------------------|

 I rem....................   tha day...............  you ask.......................

E----------0------------2h3-----|
B-------------1-------3-----3---|
G--------------0----2-----------|[2x]
D---------------2---------------|
A--------2----------------------|
E-------------------------------|

  you had..................

Chorus :

E-----3----------0------0-------------2--------3-------0------------1---------2-----|
B------3----------0------2-----------3-3--------3--------0-----------1----------3---|
G-------0-----------------0---------2---2--------5--------------------1------2------|
D--------------2-----2---------0--0------------------2---------------------0--------|
A--2-------0--2-----0------------------------5------3-------------3-----------------|
E-3-----------------------------------------3----------------0--1-------------------|

 how d... i need............  theres ..... in my.. you ca.. in my lif ...........  


E-----3----------0------0--------2----2-----3-|-----0------0---0-----0-------0----0---|
B------3----------0------2--------------------|------0----------------0-------0----0--|
G-------0-----------------0-------------------|------------------------0--------------|
D--------------2-----2--------------4-----2---|---2------0---------2-------------2----|
A--2-------0--2-----0---------4----2-----2----|--0-----------2----0--------3----2-----|
E-3--------------------------2----------------|---------------------------1-----------|

           i never fo.......  .... i had       i gue.......  ..............my way


E-------0-------2-----|
B--------1-------3----|
G-------------2-------|
D----2-------0--------|
A--0------------------|
E---------------------|

 no words.......ove you


E--------0------------0--------6-----|
B---------0------------0--------6----|
G----------------------------8-------|
D----(0)---------(4)--------8--------|
A---2----------5-----------6---------|
E--3---------3-----------------------|


(REPEAT CHORUS MOVING 1 FRET HIGHER)

(Lyrics)

How did you know

VERSE 1:
I remember so well
The day that you came into my life
You ask for my name
You had the most beautiful smile

VERSE 2:
My life started to change
I wake up each day
Feeling alright
With you right by side
Makes me feel things 
Will work out just fine

CHORUS:
How did you know
I needed someone like you in my life
That there's an empty space in my heart
You came at the right time in my life
I'll never forget 
How you brought the sun to shine in my life 
And took all the worries and fears that I had 
I guess what I'm really trying to say
It's not everyday that someone like you comes my way
No words can express how much I love you


I've seen a lot of tabs of this beautiful song, but none of them were accurate enough

to play, so i made it by myself. It sounds very good, just listen to the song and 

											
            
Submit corrections

comments powered by Disqus
↑ Back to top | Gary Valenciano Tabs for How Did You Know. Lyrics for acoustic guitar and electric guitar. 1 Tablatures and chords are parodies/interpretations of the original songs. You may use it for private study, scholarship, research or language learning purposes only