>
 >
We Have A Technical

We Have A Technical Guitar Tabs

Gary Numan - We Have A Technical chords, tabs, tablatures, lyrics

Guitar lessons | Add/correct | Request | Top 50 tabs Artists:  A B C D E F G H I J K L M N O P Q R S T U V W X Y Z 0-9

We Have A Technical Guitar Tabs – Gary Numan

CD, Sheet music, Poster

Do you like We Have A Technical? Share with your friends now
Tabs

Considering it's 8 minutes long, it took me hours to type up the tab of this cool song.
Enjoy!

INTRO:

   N.C
e|-15-------15-------15----|-13-------13-------13----|
B|----15-------15-------15-|----13-------13-------13-|
G|-------12-------12-------|-------10-------10-------|
D|-------------------------|-------------------------|
A|-------------------------|-------------------------|
E|-------------------------|-------------------------|
   1     2     3     4       1     2     3     4

e|-10-------10-------10----|-8--------8--------8-----|
B|----10-------10-------10-|----8--------8--------8--|
G|-------7--------7--------|-------5--------5--------|
D|-------------------------|-------------------------|
A|-------------------------|-------------------------|
E|-------------------------|-------------------------|
   1     2     3     4       1     2     3     4

   G                        F
e|-15-------15-------15----|-13-------13-------13----|
B|----15-------15-------15-|----13-------13-------13-|
G|-------12-------12-------|-------10-------10-------|
D|-------------------------|-------------------------|
A|-------------------------|-------------------------|
E|-------------------------|-------------------------|
 |
e|-------------------------|-------------------------|
B|-------------------------|-------------------------|
G|-------------------------|-------------------------|
D|-5--5--------------------|-3--3--------------------|
A|-5--5--------------------|-3--3--------------------|
E|-3--3--------------------|-1--1--------------------|
   1     2     3     4       1     2     3     4

   Dm                        C
e|-10-------10-------10----|-8--------8--------8-----|
B|----10-------10-------10-|----8--------8--------8--|
G|-------7--------7--------|-------5--------5--------|
D|-------------------------|-------------------------|
A|-------------------------|-------------------------|
E|-------------------------|-------------------------|
 |
e|-------------------------|-------------------------|
B|-------------------------|-------------------------|
G|-7--7--------------------|-5--5--------------------|
D|-7--7--------------------|-5--5--------------------|
A|-5--5--------------------|-3--3--------------------|
E|-------------------------|-------------------------|
   1     2     3     4       1     2     3     4

   G                        F
e|-15-------15-------15----|-13-------13-------13----|
B|----15-------15-------15-|----13-------13-------13-|
G|-------12-------12-------|-------10-------10-------|
D|-------------------------|-------------------------|
A|-------------------------|-------------------------|
E|-------------------------|-------------------------|
 |
e|-------------------------|-------------------------|
B|-------------------------|-------------------------|
G|-------------------------|-------------------------|
D|-5--5--------------------|-3--3--------------------|
A|-5--5--------------------|-3--3--------------------|
E|-3--3--------------------|-1--1--------------------|
   1     2     3     4       1     2     3     4

   Dm                        C
e|-10-------10-------10----|-8--------8--------8-----|
B|----10-------10-------10-|----8--------8--------8--|
G|-------7--------7--------|-------5--------5--------|
D|-------------------------|-------------------------|
A|-------------------------|-------------------------|
E|-------------------------|-------------------------|
 |
e|-------------------------|-------------------------|
B|-------------------------|-------------------------|
G|-7--7--------------------|-5--5--------------------|
D|-7--7--------------------|-5--5--------------------|
A|-5--5--------------------|-3--3--------------------|
E|-------------------------|-------------------------|
   1     2     3     4       1     2     3     4

   C
e|-8--------8--------8-----|
B|----8--------8--------8--|
G|-------5--------5--------|
D|-------------------------|
A|-------------------------|
E|-------------------------|(x4)

Then a quick drum riff.

   C
e|-------------------------|-------|-13-12-------------------|-------|
B|-------12-13-------------|-------|-------13-10-------------|-------|
G|----12-------------------|--://--|-------------------12----|--://--|
D|-10----------------------|--//:--|-------------------------|--//:--|
A|-------------------------|-------|-------------------------|-------|
E|-------------------------|-------|-------------------------|-------|(x2)
   1     2     3     4               1     2     3     4

   F                                                      F/C
e|-------------------------|-------------------------|-------------------------|-----------------------|
B|-6-----------------------|-------------6-----8-----|-------------------------|-------------6---------|
G|-------------------------|-------------------------|-9-----------------------|-----------------9-----|
D|-------------------------|-------------------------|-------------------------|-----------------------|
A|-------------------------|-------------------------|-------------------------|-----------------------|
E|-------------------------|-------------------------|-------------------------|-----------------------|
   1     2     3     4       1     2     3     4       1     2     3     4       1     2 
    3     4

   F                                                      F/C
e|-------------------------|-------------------------|-------------------------|-----------------------|
B|-6-----------------------|-------------6-----8-----|-------------------------|-------------6---------|
G|-------------9-----------|-5-----------------------|-9-----------------------|-----------------9-----|
D|-------------------------|-------------------------|-------------------------|-----------------------|
A|-------------------------|-------------------------|-------------------------|-----------------------|
E|-------------------------|-------------------------|-------------------------|-----------------------|
   1     2     3     4       1     2     3     4       1     2     3     4       1     2 
    3     4

   F
e|-------------------------|-------------------------|
B|-6-----------8-----------|-------------------------|
G|-------------------------|-9-----------5-----------|
D|-------------------------|-------------------------|
A|-------------------------|-------------------------|
E|-------------------------|-------------------------|
   1     2     3     4       1     2     3     4

   G
e|-------------|-------------|-------------|-------------|
B|-------------|-------------|-------------|-------------|
G|-------------|-------------|-------------|-------------|
D|-5-----------|-------------|-------------|-------------|
A|-------------|-------------|-------------|-------------|
E|-------------|-------------|-------------|-------------|(x2)
   1  2  3  4    1  2  3  4    1  2  3  4    1  2  3  4

VERSE 1:
   G
We have a random on the west side
Personality malfunction
         F
He says, "I can't give you anything at all
       G
Just a room with a bad view of you"

He sent a letter to a downstat
Saying sorry that I missed you
    F
But I can't think of anything to do
       G
He's addicted to the time track

CHORUS:
   C
e|---------------------|---------------------|
B|-13--------12--------|---------------------|
G|---------------------|-12------------------|
D|---------------------|---------------------|
A|---------------------|---------------------|
E|---------------------|---------------------|
   1    2    3    4      1    2    3    4
                                     We have a

G
Technical

   C
e|---------------------|---------------------|
B|-13--------12--------|---------------------|
G|---------------------|-12------------------|
D|---------------------|---------------------|
A|---------------------|---------------------|
E|---------------------|---------------------|
   1    2    3    4      1    2    3    4
                                     We have a

G
Technical

VERSE 2:
       D|-5--- (play this note each time the you say the word underneath that number)
He's in a hotel where they all go
Saying, "Boy, I've lost my memory"
           F
It's so surprising just how quickly things can end
       G
Like a hero on a platform of friends

  D|-5---
This table is so crowded
With people that I don't know
      F
And I never really turn my thoughts on you
       G
So the image breaks down again

REPEAT CHORUS

LINK:
   F/G           C/G           Dm/G
e|-------------|-------------|-------------|-------------|
B|-6-----------|-------------|-------------|-------------|
G|-------------|-5-----------|-7-----------|-------------|
D|-------------|-------------|-------------|-------------|
A|-------------|-------------|-------------|-------------|
E|-------------|-------------|-------------|-------------|x4
   1  2  3  4    1  2  3  4    1  2  3  4    1  2  3  4

   C
e|-------------------------|-------|-13-12-------------------|-------|
B|-------12-13-------------|-------|-------13-10-------------|-------|
G|----12-------------------|--://--|-------------------12----|--://--|
D|-10----------------------|--//:--|-------------------------|--//:--|
A|-------------------------|-------|-------------------------|-------|
E|-------------------------|-------|-------------------------|-------|(x2)
   1     2     3     4               1     2     3     4

   F                                                      F/C
e|-------------------------|-------------------------|-------------------------|-----------------------|
B|-6-----------------------|-------------6-----8-----|-------------------------|-------------6---------|
G|-------------------------|-------------------------|-9-----------------------|-----------------9-----|
D|-------------------------|-------------------------|-------------------------|-----------------------|
A|-------------------------|-------------------------|-------------------------|-----------------------|
E|-------------------------|-------------------------|-------------------------|-----------------------|
   1     2     3     4       1     2     3     4       1     2     3     4       1     2 
    3     4

   F                                                      F/C
e|-------------------------|-------------------------|-------------------------|-----------------------|
B|-6-----------------------|-------------6-----8-----|-------------------------|-------------6---------|
G|-------------9-----------|-5-----------------------|-9-----------------------|-----------------9-----|
D|-------------------------|-------------------------|-------------------------|-----------------------|
A|-------------------------|-------------------------|-------------------------|-----------------------|
E|-------------------------|-------------------------|-------------------------|-----------------------|
   1     2     3     4       1     2     3     4       1     2     3     4       1     2 
    3     4

   F
e|-------------------------|-------------------------|
B|-6-----------8-----------|-------------------------|
G|-------------------------|-9-----------5-----------|
D|-------------------------|-------------------------|
A|-------------------------|-------------------------|
E|-------------------------|-------------------------|
   1     2     3     4       1     2     3     4

Then at this point, you will hear a very heavily distorted guitar, which sounds
like some sort of a percussion instrument.

   G
e|----------x--|----------x--|----------x--|----------x--|
B|----------x--|----------x--|----------x--|----------x--|
G|----------x--|----------x--|----------x--|----------x--|
D|-5--------x--|----------x--|----------x--|----------x--|
A|----------x--|----------x--|----------x--|----------x--|
E|----------x--|----------x--|----------x--|----------x--|(x2)
   1  2  3  4    1  2  3  4    1  2  3  4    1  2  3  4
                                                      I sup...

VERSE 3:
   G
e|-----------x-------------------x---------|-----------x-------------------x---------|
B|-----------x-------------------x---------|-----------x-------------------x---------|
G|-----------x-------------------x---------|-----------x-------------------x---------|
D|-----------x-------------------x---------|-----------x-------------------x---------|
A|-----------x-------------------x---------|-----------x-------------------x---------|
E|-----------x-------------------x---------|-----------x-------------------x---------|
   1         2         3         4           1         2         3         4
...pose itís very      sha   -   dy                                             At

e|-----------x-------------------x---------|-----------x-------------------x---------|
B|-----------x-------------------x---------|-----------x-------------------x---------|
G|-----------x-------------------x---------|-----------x-------------------x---------|
D|-----------x-------------------x---------|-----------x-------------------x---------|
A|-----------x-------------------x---------|-----------x-------------------x---------|
E|-----------x-------------------x---------|-----------x-------------------x---------|
   1         2         3         4           1         2         3         4
   least  un-til the   lights go out

   F
e|-----------x-------------------x---------|-----------x-------------------x---------|
B|-----------x-------------------x---------|-----------x-------------------x---------|
G|-----------x-------------------x---------|-----------x-------------------x---------|
D|-----------x-------------------x---------|-----------x-------------------x---------|
A|-----------x-------------------x---------|-----------x-------------------x---------|
E|-----------x-------------------x---------|-----------x-------------------x---------|
   1         2         3         4           1         2         3         4
   Adver  -  tising    posters   on the      wall                               And the

   G
e|-----------x-------------------x---------|-----------x-------------------x---------|
B|-----------x-------------------x---------|-----------x-------------------x---------|
G|-----------x-------------------x---------|-----------x-------------------x---------|
D|-----------x-------------------x---------|-----------x-------------------x---------|
A|-----------x-------------------x---------|-----------x-------------------x---------|
E|-----------x-------------------x---------|-----------x-------------------x---------|
   1         2         3         4           1         2         3         4
  young boys singing   soft  -   ly

   G
e|-----------x-------------------x---------|-----------x-------------------x---------|
B|-----------x-------------------x---------|-----------x-------------------x---------|
G|-----------x-------------------x---------|-----------x-------------------x---------|
D|-----------x-------------------x---------|-----------x-------------------x---------|
A|-----------x-------------------x---------|-----------x-------------------x---------|
E|-----------x-------------------x---------|-----------x-------------------x---------|
   1         2         3         4           1         2         3         4
   Do they   ev - er   come      back                                      Or is it

e|-----------x-------------------x---------|-----------x-------------------x---------|
B|-----------x-------------------x---------|-----------x-------------------x---------|
G|-----------x-------------------x---------|-----------x-------------------x---------|
D|-----------x-------------------x---------|-----------x-------------------x---------|
A|-----------x-------------------x---------|-----------x-------------------x---------|
E|-----------x-------------------x---------|-----------x-------------------x---------|
   1         2         3         4           1         2         3         4
   always  at  the   wrong     time?                                     I could

   F
e|-----------x-------------------x---------|-----------x-------------------x---------|
B|-----------x-------------------x---------|-----------x-------------------x---------|
G|-----------x-------------------x---------|-----------x-------------------x---------|
D|-----------x-------------------x---------|-----------x-------------------x---------|
A|-----------x-------------------x---------|-----------x-------------------x---------|
E|-----------x-------------------x---------|-----------x-------------------x---------|
   1         2         3         4           1         2         3         4
   crawl a - round the floor justlike I'm    real                               and

   G
e|-----------x-------------------x---------|-----------x-------------------x---------|
B|-----------x-------------------x---------|-----------x-------------------x---------|
G|-----------x-------------------x---------|-----------x-------------------x---------|
D|-----------x-------------------x---------|-----------x-------------------x---------|
A|-----------x-------------------x---------|-----------x-------------------x---------|
E|-----------x-------------------x---------|-----------x-------------------x---------|
   1         2         3         4           1         2         3         4
   move a    hand in   front of  my          eyes

CHORUS:

   C
e|---------------------|---------------------|
B|-13--------12--------|---------------------|
G|---------------------|-12------------------|
D|---------------------|---------------------|
A|---------------------|---------------------|
E|---------------------|---------------------|
 |
e|-x-----------------------|---------------------|
B|-x-----------------------|---------------------|
G|-x--let-it-ring----------|---------------------|
D|-x-----------------------|---------------------|
A|-x-----------------------|---------------------|
E|-x-----------------------|---------------------|
   1     2     3     4       1     2     3     4
                                     We have a

   G
e|-x--x--x-----x-----x-----|-x--x--x-----x-----x-----|
B|-x--x--x-----x-----x-----|-x--x--x-----x-----x-----|
G|-x--x--x-----x-----x-----|-x--x--x-----x-----x-----|
D|-x--x--x-----x-----x-----|-x--x--x-----x-----x-----|
A|-x--x--x-----x-----x-----|-x--x--x-----x-----x-----|
E|-x--x--x-----x-----x-----|-x--x--x-----x-----x-----|
   1     2     3     4       1     2     3     4
   Technical

REPEAT THIS SECTION another 3 TIMES

OUTRO:
   F/G                       C/G                       Dm/G
e|-------------------------|-------------------------|-------------------------|-----------------------|
B|-6-----------------------|-------------------------|-------------------------|-----------------------|
G|-------------------------|-5-----------------------|-7-----------------------|-----------------------|
D|-------------------------|-------------------------|-------------------------|-----------------------|
A|-------------------------|-------------------------|-------------------------|-----------------------|
E|-------------------------|-------------------------|-------------------------|-----------------------|
 |
e|-------x-----------x-----|-------x-----------x-----|-------x-----------x-----|
B|-------x-----------x-----|-------x-----------x-----|-------x-----------x-----|
G|-------x-----------x-----|-------x-----------x-----|-------x-----------x-----|
D|-------x-----------x-----|-------x-----------x-----|-------x-----------x-----|
A|-------x-----------x-----|-------x-----------x-----|-------x-----------x-----|
E|-------x-----------x-----|-------x-----------x-----|-------x-----------x-----|
   1     2     3     4       1     2     3     4       1     2     3     4     |

|-------x---------x-----|
|-------x---------x-----|
|-------x---------x-----|
|-------x---------x-----|
|-------x---------x-----|
|-------x---------x-----|(x4)
  1     2     3     4

   C
e|-------------------------|-------|-13-12-------------------|-------|
B|-------12-13-------------|-------|-------13-10-------------|-------|
G|----12-------------------|--://--|-------------------12----|--://--|
D|-10----------------------|--//:--|-------------------------|--//:--|
A|-------------------------|-------|-------------------------|-------|
E|-------------------------|-------|-------------------------|-------|
 |
e|-x-----------------------|-------|-------------------------|-------|
B|-x-----------------------|-------|-------------------------|-------|
G|-x-----------------------|--://--|-------------------------|--://--|
D|-x-----------------------|--//:--|-------------------------|--//:--|
A|-x-----------------------|-------|-------------------------|-------|
E|-------------------------|-------|-------------------------|-------|(x2)
   1     2     3     4               1     2     3     4

   F                                                      F/C
e|-------------------------|-------------------------|-------------------------|-----------------------|
B|-6-----------------------|-------------6-----8-----|-------------------------|-------------6---------|
G|-------------------------|-------------------------|-9-----------------------|-----------------9-----|
D|-------------------------|-------------------------|-------------------------|-----------------------|
A|-------------------------|-------------------------|-------------------------|-----------------------|
E|-------------------------|-------------------------|-------------------------|-----------------------|
 |
e|-x-----------------------|-------------------------|-x-----------------------|---------|
B|-x-----------------------|-------------------------|-x-----------------------|---------|
G|-x-----------------------|-------------------------|-x-----------------------|---------|
D|-x-----------------------|-------------------------|-x-----------------------|---------|
A|-x-----------------------|-------------------------|-x-----------------------|---------|
E|-x-----------------------|-------------------------|-x-----------------------|---------|
   1     2     3     4       1     2     3     4       1     2     3     4       1     2 
    3     4

   F                                                      F/C
e|-------------------------|-------------------------|-------------------------|-----------------------|
B|-6-----------------------|-------------6-----8-----|-------------------------|-------------6---------|
G|-------------9-----------|-5-----------------------|-9-----------------------|-----------------9-----|
D|-------------------------|-------------------------|-------------------------|-----------------------|
A|-------------------------|-------------------------|-------------------------|-----------------------|
E|-------------------------|-------------------------|-------------------------|-----------------------|
 |
e|-x-----------------------|-------------------------|-x-----------------------|----------|
B|-x-----------------------|-------------------------|-x-----------------------|----------|
G|-x-----------------------|-------------------------|-x-----------------------|----------|
D|-x-----------------------|-------------------------|-x-----------------------|----------|
A|-x-----------------------|-------------------------|-x-----------------------|----------|
E|-x-----------------------|-------------------------|-x-----------------------|----------|
   1     2     3     4       1     2     3     4       1     2     3     4       1     2 
    3     4

   F
e|-------------------------|-------------------------|
B|-6-----------8-----------|-------------------------|
G|-------------------------|-9-----------5-----------|
D|-------------------------|-------------------------|
A|-------------------------|-------------------------|
E|-------------------------|-------------------------|
 |
e|-x-----------------------|-------------------------|
B|-x-----------------------|-------------------------|
G|-x-----------------------|-------------------------|
D|-x-----------------------|-------------------------|
A|-x-----------------------|-------------------------|
E|-x-----------------------|-------------------------|
   1     2     3     4       1     2     3     4

   G
e|-------------|-------------|-------------|-------------|
B|-------------|-------------|-------------|-------------|
G|-------------|-------------|-------------|-------------|
D|-5-----------|-------------|-------------|-------------|
A|-------------|-------------|-------------|-------------|
E|-------------|-------------|-------------|-------------|
 |
e|----------x--|----------x--|----------x--|----------x--|
B|----------x--|----------x--|----------x--|----------x--|
G|----------x--|----------x--|----------x--|----------x--|
D|----------x--|----------x--|----------x--|----------x--|
A|----------x--|----------x--|----------x--|----------x--|
E|----------x--|----------x--|----------x--|----------x--|
   1  2  3  4    1  2  3  4    1  2  3  4    1  2  3  4

   F/G                       C/G                       Dm/G
e|-------------------------|-------------------------|-------------------------|------------|
B|-6-----------------------|-------------------------|-------------------------|------------|
G|-------------------------|-5-----------------------|-7-----------------------|------------|
D|-------------------------|-------------------------|-------------------------|------------|
A|-------------------------|-------------------------|-------------------------|------------|
E|-------------------------|-------------------------|-------------------------|------------|
 |
e|-------------------x-----|-------------------x-----|-------------------x-----|
B|-------------------x-----|-------------------x-----|-------------------x-----|
G|-------------------x-----|-------------------x-----|-------------------x-----|
D|-------------------x-----|-------------------x-----|-------------------x-----|
A|-------------------x-----|-------------------x-----|-------------------x-----|
E|-------------------x-----|-------------------x-----|-------------------x-----|
   1     2     3     4       1     2     3     4       1     2     3     4     |

|-------------------x-----|
|-------------------x-----|
|-------------------x-----|
|-------------------x-----|
|-------------------x-----|
|-------------------x-----|(x4)
  1     2     3     4

   F/G                       C/G                       Dm/G
e|-------------------------|-------------------------|-------------------------|----------|
B|-6-----------------------|-------------------------|-------------------------|----------|
G|-------------------------|-5-----------------------|-7-----------------------|----------|
D|-------------------------|-------------------------|-------------------------|----------|
A|-------------------------|-------------------------|-------------------------|----------|
E|-------------------------|-------------------------|-------------------------|----------|
 |
e|-x--x--x--x--x--x--x--x--|-x--x--x--x--x--x--x--x--|-x--x--x--x--x--x--x--x--|
B|-x--x--x--x--x--x--x--x--|-x--x--x--x--x--x--x--x--|-x--x--x--x--x--x--x--x--|
G|-x--x--x--x--x--x--x--x--|-x--x--x--x--x--x--x--x--|-x--x--x--x--x--x--x--x--|
D|-x--x--x--x--x--x--x--x--|-x--x--x--x--x--x--x--x--|-x--x--x--x--x--x--x--x--|
A|-x--x--x--x--x--x--x--x--|-x--x--x--x--x--x--x--x--|-x--x--x--x--x--x--x--x--|
E|-x--x--x--x--x--x--x--x--|-x--x--x--x--x--x--x--x--|-x--x--x--x--x--x--x--x--|
   1     2     3     4       1     2     3     4       1     2     3     4     |

|-x--x--x--x--x--x--x--x--|
|-x--x--x--x--x--x--x--x--|
|-x--x--x--x--x--x--x--x--|
|-x--x--x--x--x--x--x--x--|
|-x--x--x--x--x--x--x--x--|
|-x--x--x--x--x--x--x--x--|(x4)
  1     2     3     4


   F/G
e|-------------------------|-5-----------------------|
B|-6-----------------------|-------------------------|
G|-------------------------|-------------------------|
D|-------------------------|-------------------------|
A|-------------------------|-------------------------|
E|-------------------------|-------------------------|
 |
e|-x--x--x--x--x--x--x--x--|-x--x--x--x--x--x--x--x--|
B|-x--x--x--x--x--x--x--x--|-x--x--x--x--x--x--x--x--|
G|-x--x--x--x--x--x--x--x--|-x--x--x--x--x--x--x--x--|
D|-x--x--x--x--x--x--x--x--|-x--x--x--x--x--x--x--x--|
A|-x--x--x--x--x--x--x--x--|-x--x--x--x--x--x--x--x--|
E|-x--x--x--x--x--x--x--x--|-x--x--x--x--x--x--x--x--|
   1     2     3     4       1     2     3     4

   G                        F
e|--15-------15-------15-----|--13-------13-------13-----|
B|-----15-------15-------15--|-----13-------13-------13--|
G|:-------12-------12-------:|:-------10-------10-------:|
D|:-------------------------:|:-------------------------:|
A|---------------------------|---------------------------|
E|---------------------------|---------------------------|
 |
e|---------------------------|---------------------------|
B|---------------------------|---------------------------|
G|:-------------------------:|:-------------------------:|
D|:-5--5--------------------:|:-3--3--------------------:|
A|--5--5---------------------|--3--3---------------------|
E|--3--3---------------------|--1--1---------------------|
    1     2     3     4         1     2     3     4

   Dm                        C
e|--10-------10-------10-----|--8--------8--------8------|
B|-----10-------10-------10--|-----8--------8--------8---|
G|:-------7--------7--------:|:-------5--------5--------:|
D|:-------------------------:|:-------------------------:|
A|---------------------------|---------------------------|
E|---------------------------|---------------------------|
 |
e|---------------------------|---------------------------|
B|---------------------------|---------------------------|
G|:-7--7--------------------:|:-5--5--------------------:|
D|:-7--7--------------------:|:-5--5--------------------:|
A|--5--5---------------------|--3--3---------------------|
E|---------------------------|---------------------------|
    1     2     3     4         1     2     3     4


   G                        F
e|--15-------15-------15-----|--13-------13-------13-----|
B|-----15-------15-------15--|-----13-------13-------13--|
G|:-------12-------12-------:|:-------10-------10-------:|
D|:-------------------------:|:-------------------------:|
A|---------------------------|---------------------------|
E|---------------------------|---------------------------|
 |
e|---------------------------|---------------------------|
B|---------------------------|---------------------------|
G|:-------------------------:|:-------------------------:|
D|:-5--5--------------------:|:-3--3--------------------:|
A|--5--5---------------------|--3--3---------------------|
E|--3--3---------------------|--1--1---------------------|
    1     2     3     4         1     2     3     4

   Dm                        C
e|--10-------10-------10-----|--8--------8--------8------|
B|-----10-------10-------10--|-----8--------8--------8---|
G|:-------7--------7--------:|:-------5--------5--------:|
D|:-------------------------:|:-------------------------:|
A|---------------------------|---------------------------|
E|---------------------------|---------------------------|
 |
e|---------------------------|---------------------------|
B|---------------------------|---------------------------|
G|:-7--7--------------------:|:-5--5--------------------:|
D|:-7--7--------------------:|:-5--5--------------------:|
A|--5--5---------------------|--3--3---------------------|
E|---------------------------|---------------------------|
    1     2     3     4         1     2     3     4

   N.C
e|--15-------15-------15-----|--13-------13-------13-----|
B|-----15-------15-------15--|-----13-------13-------13--|
G|:-------12-------12-------:|:-------10-------10-------:|
D|:-------------------------:|:-------------------------:|
A|---------------------------|---------------------------|
E|---------------------------|---------------------------|
    1     2     3     4         1     2     3     4

e|--10-------10-------10-----|--8--------8--------8------|
B|-----10-------10-------10--|-----8--------8--------8---|
G|:-------7--------7--------:|:-------5--------5--------:|
D|:-------------------------:|:-------------------------:|
A|---------------------------|---------------------------|
E|---------------------------|---------------------------|
    1     2     3     4         1     2     3     4

   C
e|-8--------8--------8-----|
B|----8--------8--------8--|
G|-------5--------5--------|
D|-------------------------|
A|-------------------------|
E|-------------------------|(Repeat till fade)





Comments


Popular Gary Numan tabs & chords
Are Friends Electric Bass Tabs
The Machman Bass Tabs
This Is My House Bass Tabs
Are 'Friends' Electric? Chords
Bombers Chords
We Are Gass Chords
Are 'Friends' Electric? Tabs
Haunted Tabs
The Machman Tabs
Bombers Ukulele


Song lyrics



↑ Back to top | Tablatures and chords are parodies/interpretations of the original songs. You may use it for private study, scholarship, research or language learning purposes only
© 2014 AZChords.com Contact us | Privacy policy | DMCA | Add/correct tabs | Request tabs | Top 50 tabs