» » »

Music For Chameleons Bass tabs (ver.2)

Artists:  A B C D E F G H I J K L M N O P Q R S T U V W X Y Z # 

Music For Chameleons Bass tabs (ver.2)

Gary Numan
Rating:
4/5 (3 votes)

Hard to play? Try these video lessons and learn fast.
                After seeing Alan play the air bass to this on 'Im Alan Partridge', I've been looking 
for a bass tab for the song. Unfortunately there doesn't seem to be one, so I figured it 
for anyone else trying to find it.

I think the actual song was played on a fretless bass, but I find a flange effect works 
to get the right sound.

Here it is anyway:

Key
 / = Slide Up To Fret
 \ = Slide Down To Fret
 h = Hammer On

Intro:
G|-------------------------------------------------------------|
D|-------------------------------------------------------------|
A|--------7-(hold)------7-(hold)------/7-(hold)-------/7-(hold)|
E|-------------------------------------------------------------|

Main riff: (0:37)
G|--------7/9---7----9-9---7----7h6----------------------------|
D|------------9----------9--------------7-7-5-5-7\-------------|
A|----7--------------------------------------------------------|
E|-------------------------------------------------------------|


Main riff: (0:37)
G|--------7/9---7----7-7--9h7-6----7h6---7h6-------------------|
D|------------9------------------------------------------------|
A|----7--------------------------------------------------------|
E|-------------------------------------------------------------|
            
Hard to play? Try these video lessons and learn fast. | Correct




comments powered by Disqus
↑ Back to top | Tablatures and chords are parodies/interpretations of the original songs. You may use it for private study, scholarship, research or language learning purposes only