» » »

Metal Tabs (ver.1)

Artists:  A B C D E F G H I J K L M N O P Q R S T U V W X Y Z # 

Metal Tabs (ver.1)

Gary Numan
Rating:
0/5 (0 votes)

Hard to play? Try these video lessons and learn fast.
                

E|-----------------------------------------------------
B|-----------------------------------------------------
G|-----------------------------------------------------
D|-----------------------------------------------------
A|---7-----7-----7-------7-----7-----7-----7-------7---
E|-0---0-0---0-0---0-0-0---0-0---0-0---0-0---0-0-0---0-

--------------------------------------------------------------
--------------------------------------------------------------
--------------------------------------------------------------
---10-----10-----10-------10-----10------10-----10-------10---
--------------------------------------------------------------
-8----8-8----8-8----8-8-8----8-8-----8-8----8-8----8-8-8----8-

-----------------------------------------------------|
-----------------------------------------------------|
-----------------------------------------------------|
---7-----7-----7-------7-----7-----7-----7-------7---|
-----------------------------------------------------|
-5---5-5---5-5---5-5-5---5-5---5-5---5-5---5-5-5---5-|
            
Hard to play? Try these video lessons and learn fast. | Correct




comments powered by Disqus
↑ Back to top | Tablatures and chords are parodies/interpretations of the original songs. You may use it for private study, scholarship, research or language learning purposes only