» » »

Gary Numan, Jagged Bass tabs (ver.1)

Artists:  A B C D E F G H I J K L M N O P Q R S T U V W X Y Z # 

Jagged Bass tabs (ver.1)

Gary Numan Tabs
 Rating:
4/5 (4 votes)
Jagged lessons Tabs too difficult? Try these video lessons and learn fast
1
                -------------------------------------------------------------------------------
-------------------------------------------------------------------------------


My first ever submitted TAB, couldn't find this online so did it by ear,
It sounds good although its not perfect. bear in mind that it has cello
and bass guitar and heavy bass synths so picking it all out is difficult,
feel free to comment and enjoy.

Tuning: Standard

Riff 1 (cello for bass)

G|------------------------1--------------------------------------------------|
D|-3p0--3p0------3p0--3p0---3-1-0--------------------------------------------|
A|---------------------------------------------------------------------------|
E|---------------------------------------------------------------------------|

Riff 2 (cello for bass)

G|-1p0--1p0------1p0--1p0----------------------------------------------------|
D|------------------------3-0-1-0--------------------------------------------|
A|---------------------------------------------------------------------------|
E|---------------------------------------------------------------------------|

main verses are simply 

G|---------------------------------------------------------------------------|
D|---------------------------------------------------------------------------|
A|---------------------------------------------------------------------------|
E|-0-------------------------------------------------------------------------|

then the 'What do you need' bit

G|---------------------------------------------------------------------------|
D|---------------------------------------------------------------------------|
A|---------------------------------------------------------------------------|
E|-0-----00-----------0------00----------------------------------------------|

remember to take you left hand completely away from the neck for the 
open E string notes because it looks bl**dy cool!

The chorus (I feel it fall) is 

G|---------------------------------------------------------------------------|
D|---------------------------------------------------------------------------|
A|-555555555/55555555/10-10-10-10-10-10-10-10/88888888-----------------------
E|--------------------^only spaced for clarity of tab-same timing applies---|

with the variation (only playing the first note in the bar)

G|---------------------------------------------------------------------------|
D|---------------------------------------------------------------------------|
A|-5--------5---------10---------8-------------------------------------------|
E|---------------------------------------------------------------------------|

I hope I've done Gary Proud!

Regards.

| /  slide up
| \  slide down
| h  hammer-on
| p  pull-off
| ~  vibrato
| +  harmonic
| x  Mute note
===============================================================================
            
Submit corrections

comments powered by Disqus
↑ Back to top | Gary Numan Bass for Jagged. Lyrics for acoustic guitar and electric guitar. 1 Tablatures and chords are parodies/interpretations of the original songs. You may use it for private study, scholarship, research or language learning purposes only