» » »

Gary Numan, Haunted Tabs (ver.1)

Artists:  A B C D E F G H I J K L M N O P Q R S T U V W X Y Z # 

Haunted Tabs (ver.1)

Gary Numan Tabs
Rating:
5/5 (1 vote)
Haunted lessons Tabs too difficult? Try these video lessons and learn fast
                -------------------------------------------------------------------------------
-------------------------------------------------------------------------------

Tuning: Dropped D (DADGBE

e|-------------------|--------------------|-------------------|--------------------|
B|-------------------|--------------------|-------------------|--------------------|
G|-3-3-3--3-3-3--3-3-|-3-3-3--3-3-3-------|-3-3-3--3-3-3--3-3-|-3-3-3--3-3-3-------|
D|-3-3-3--3-3-3--3-3-|-3-3-3--3-3-3-------|-3-3-3--3-3-3--3-3-|-3-3-3--3-3-3-------|
A|-1-1-1--1-1-1--1-1-|-1-1-1--1-1-1-------|-1-1-1--1-1-1--1-1-|-1-1-1--1-1-1-------| x2
D|-------------------|--------------1-3-4~|-------------------|--------------1-3-4~|
VERSE:
e|---------------------------------------------------------------------------|
B|---------------------------------------------------------------------------|
G|---------------------------------------------------------------------------|
D|---------------------------------------------------------------------------|
A|---------------------------------------------------------------------------|
D|---------------------------------------------------------------------------|
  And I can Not Be Saved. Not by you. Not by god. I want to be.

e|-------------------|---------------------|-------------------|--------------------|
B|-------------------|---------------------|-------------------|--------------------|
G|-3-3-3--3-3-3--3-3-|-3-3-3--3-3-3--------|-3-3-3--3-3-3--3-3-|-3-3-3--3-3-3-------|
D|-3-3-3--3-3-3--3-3-|-3-3-3--3-3-3--------|-3-3-3--3-3-3--3-3-|-3-3-3--3-3-3-------|
A|-1-1-1--1-1-1--1-1-|-1-1-1--1-1-1--------|-1-1-1--1-1-1--1-1-|-1-1-1--1-1-1-------|
D|-------------------|---------------1-3-4~|-------------------|--------------1-3-4~|

e|---------------------------------------------------------------------------|
B|---------------------------------------------------------------------------|
G|---------------------------------------------------------------------------|
D|---------------------------------------------------------------------------|
A|---------------------------------------------------------------------------|
D|---------------------------------------------------------------------------|
  And I can hardly breathe. Look at me, falling down, before you.

e|-------------------|--------------------|-------------------|--------------------|
B|-------------------|--------------------|-------------------|--------------------|
G|-3-3-3--3-3-3--3-3-|-3-3-3--3-3-3-------|-3-3-3--3-3-3--3-3-|-3-3-3--3-3-3-------|
D|-3-3-3--3-3-3--3-3-|-3-3-3--3-3-3-------|-3-3-3--3-3-3--3-3-|-3-3-3--3-3-3-------|
A|-1-1-1--1-1-1--1-1-|-1-1-1--1-1-1-------|-1-1-1--1-1-1--1-1-|-1-1-1--1-1-1-------| x2
D|-------------------|--------------1-3-4~|-------------------|--------------1-3-4~|

CHORUS:
e|-------------------|--------------------|-------------------|--------------------|
B|-------------------|--------------------|-------------------|--------------------|
G|-3-----------------|-5------------------|-7-----------------|-5------------------|
D|-3-----------------|-5------------------|-7-----------------|-5------------------|
A|-1-----------------|-3------------------|-5-----------------|-3------------------| x4
D|-------------------|--------------------|-------------------|--------------------|
   All _________ I ____ needed ___________ Take Me ___________ Away from you
Key A# _________ A ____ C _ G _____________ D _ E ____________ E F _ E __ D

e|-------------------|--------------------|-------------------|--------------------|
B|-------------------|--------------------|-------------------|--------------------|
G|-3-3-3--3-3-3--3-3-|-3-3-3--3-3-3-------|-3-3-3--3-3-3--3-3-|-3-3-3--3-3-3-------|
D|-3-3-3--3-3-3--3-3-|-3-3-3--3-3-3-------|-3-3-3--3-3-3--3-3-|-3-3-3--3-3-3-------|
A|-1-1-1--1-1-1--1-1-|-1-1-1--1-1-1-------|-1-1-1--1-1-1--1-1-|-1-1-1--1-1-1-------|
D|-------------------|--------------1-3-4~|-------------------|--------------1-3-4~|
Keyboard:
   A# ______ C# _____ B _______ D __ C#_B _ A# ______ C# _____ B _______ D __ C#_B _

VERSE
e|---------------------------------------------------------------------------|
B|---------------------------------------------------------------------------|
G|---------------------------------------------------------------------------|
D|---------------------------------------------------------------------------|
A|---------------------------------------------------------------------------|
D|---------------------------------------------------------------------------|
  And this is not my face. Not my voice. Not my life. It belongs to you.




e|-------------------|--------------------|-------------------|--------------------|
B|-------------------|--------------------|-------------------|--------------------|
G|-3-3-3--3-3-3--3-3-|-3-3-3--3-3-3-------|-3-3-3--3-3-3--3-3-|-3-3-3--3-3-3-------|
D|-3-3-3--3-3-3--3-3-|-3-3-3--3-3-3-------|-3-3-3--3-3-3--3-3-|-3-3-3--3-3-3-------|
A|-1-1-1--1-1-1--1-1-|-1-1-1--1-1-1-------|-1-1-1--1-1-1--1-1-|-1-1-1--1-1-1-------|
D|-------------------|--------------1-3-4~|-------------------|--------------1-3-4~|

e|---------------------------------------------------------------------------|
B|---------------------------------------------------------------------------|
G|---------------------------------------------------------------------------|
D|---------------------------------------------------------------------------|
A|---------------------------------------------------------------------------|
D|---------------------------------------------------------------------------|
And you would not believe. The things I’ve seen, the things I’ve done all in your name.

e|-------------------|--------------------|-------------------|--------------------|
B|-------------------|--------------------|-------------------|--------------------|
G|-3-3-3--3-3-3--3-3-|-3-3-3--3-3-3-------|-3-3-3--3-3-3--3-3-|-3-3-3--3-3-3-------|
D|-3-3-3--3-3-3--3-3-|-3-3-3--3-3-3-------|-3-3-3--3-3-3--3-3-|-3-3-3--3-3-3-------|
A|-1-1-1--1-1-1--1-1-|-1-1-1--1-1-1-------|-1-1-1--1-1-1--1-1-|-1-1-1--1-1-1-------| x2
D|-------------------|--------------1-3-4~|-------------------|--------------1-3-4~|
Keyboard:
   A# ______ C# _____ B _______ D __ C#_B _ A# ______ C# _____ B _______ D __ C#_B _

CHORUS:
e|-------------------|--------------------|-------------------|--------------------|
B|-------------------|--------------------|-------------------|--------------------|
G|-3-----------------|-5------------------|-7-----------------|-5------------------|
D|-3-----------------|-5------------------|-7-----------------|-5------------------|
A|-1-----------------|-3------------------|-5-----------------|-3------------------| x4
D|-------------------|--------------------|-------------------|--------------------|
   All _________ I ____ needed ___________ Take Me ___________ Away from you
Keyboard:     
    A# _________ A ____ C _ G _____________ D _ E ____________ E F _ E __ D




| /  slide up
| \  slide down
| h  hammer-on
| p  pull-off
| ~  vibrato
| +  harmonic
| x - Mute note
===============================================================================
            
Submit corrections

comments powered by Disqus
↑ Back to top | Gary Numan Tabs for Haunted. Lyrics for acoustic guitar and electric guitar. Tablatures and chords are parodies/interpretations of the original songs. You may use it for private study, scholarship, research or language learning purposes only