» » »

Cars Tabs (ver.2)

Artists:  A B C D E F G H I J K L M N O P Q R S T U V W X Y Z # 

Cars Tabs (ver.2)

Gary Numan
Rating:
2/5 (3 votes)

Hard to play? Try these video lessons and learn fast.
                          Cars   
          From:Gary Numan 
          RP1:Repeat one more time 
 
 
          E----5b-5b-5b-5b-5b-5b-5b-------(Make's a vibration) 
 
          e----------------------------------------------------------- 
          B----------------------------------------------------------- 
          G----------------------------------------------------------- 
          D----------------------------------------------------------- 
          A-5-4------------5-4---------------------------------------- 
          E-----3-5-5-5--------3-5-5-5-RP1-2-3-7-3-3--2-3-7-3-3 
 
          e-17-19-17-15------------ 
          B-------------15--------- 
          G----------------16------ 
          D-------------------17--- 
          A------------------------ 
          E------------------------ 
 
          e--------------------------------------------------- 
          B--------------------------------------------------- 
          G--------------------------------------------------- 
          D--------------------------------------------------- 
          A-5-4----------5-4---------------------------------- 
          E-----3-5-5-5-------3-5-5-5-RP1---2-3-7-3-3---2-3-7-3-3 
                            [Repeat the Above again] 
 
          e----------------------------13-12-------------------------- 
          B----15-------------------------------15-------------------- 
          G-------14-16-17-16----15----------------14-16-17-16------14 
          D-12----------------12----14-------12----------------12-12-- 
          A----------------------------------------------------------- 
          E----------------------------------------------------------- 
 
          B continued-15           (Repeat above once more) 
 
          That's how the song goes.
            
Hard to play? Try these video lessons and learn fast. | Correct




comments powered by Disqus
↑ Back to top | Tablatures and chords are parodies/interpretations of the original songs. You may use it for private study, scholarship, research or language learning purposes only