>
 >
Thunder Rising

Thunder Rising Guitar Tabs

Gary Moore - Thunder Rising chords, tabs, tablatures, lyrics

Guitar lessons | Add/correct | Request | Top 50 tabs Artists:  A B C D E F G H I J K L M N O P Q R S T U V W X Y Z 0-9

Thunder Rising Guitar Tabs – Gary Moore

CD, Sheet music, Poster

Do you like Thunder Rising? Share with your friends now
ChordsTabsUkulele
Composer(s): Gary Moore; Neil Carter

Intro

e----------------------------------------------------------------|
B----15-12----12-15-12h15p12/10-12-15-12----12-------------------|
G----------14----------------------------12---14--12-------------|
D-2--------------------------------------------------14----12-14-|
A-2-----------------------------------------------------14-------|
E-0--------------------------------------------------------------|

Verse (NOTE: This is also used in the final chorus).

e---------------------------------------------|
B---------------------------------------------|
G---------------------------------------------|
D-------------7-7-7-----------------9-9-9-----|
A-5-5-5-7-7-7-------7-7-5-5-5-7-7-7-------7-7-|
E---------------------------------------------|

e-----------------------------------------|
B-----------------------------------------|
G-----------------------------------------|
D-------------7-7-7-----------------9---7-|
A-5-5-5-7-7-7-------7-7-5-5-5-7-7-7---7---|
E-----------------------------------------|

Pre-Chorus

e-----------------|
B-----------------|
G-4--7--12-11-9-7-|
D-4--7--12-11-9-7-|
A-2--5--10-9--7-5-|
E-----------------|

Chorus

e-------------|
B-------------|
G-----5-7-4-5-|
D-2-5-5-7-4-5-|
A-2-5-3-5-2-3-|
E-0-3---------|

Bridge

e---------------------------------|
B---------------------------------|
G-14------------------------14-12-|
D-14------------------------14-12-|
A---12-12-12-12-12-12-12-12-------|
E---------------------------------|

Pre-Solo

e---------------------------------------|
B-------8-10-12-10hp12p8--------8-------|
G-9-7-9------------------9-7-9----7-9-9-|
D---------------------------------------|
A---------------------------------------|
E---------------------------------------|

e----------------------------------------|
B--------8-10-12-10h12p10p8--------------|
G-9-7-9----------------------9-7-7-4-2-2-|
D----------------------------------------|
A----------------------------------------|
E----------------------------------------|

Solo (NOTE: Parts of this solo isn't what Gary plays as it's too quick for me
to work out so I've just put down what I play).

e---------|
B---------|
G---------|
D---------|
A---------|
E-0www\\\-

e---------------------------------------------------------|
B-5-----------------8b-8-7-----------7-7-7h8p7---7-8/12---|
G-7b-7b-7p5----------------7-----7-9-----------9----------|
D-----------7-5-0------------7-7--------------------------|
A-----------------2---------------------------------------|
E-------------------------------------------------------0-|

e----------15-17-17b-17p15h17-|
B----17-19--------------------|
G-16--------------------------|
D-----------------------------|
A-----------------------------|
E-----------------------------|

e-15-13-12----------------------------------------------|
B----------15-13-12-------------------------------------|
G--------------------14-12-11-12---------------------9*-|
D-------------------------------------------------------|
A--------------------------------9-10-12-10-9-10-9-7----|
E-------------------------------------------------------|

e----------------------------------------------------|
B-5h8p5---5-8p5---5-8p5---5-8p5---5-8p5---5----------|
G-------8-------8-------8-------8-------8---8-7------|
D-----------------------------------------------7----|
A----------------------------------------------------|
E-------------------------------------------------0w-|

e-----------------------------------------------|
B--------------------------------------12-13-15-|
G-----------------------------12-14-15----------|
D--------------------12-14-15-------------------|
A----------12-14-15-----------------------------|
E-12-14-15--------------------------------------|

e-15p14p12-17p15p14-19p17p15-20p19p17-20b-21b-22b-|
B-------------------------------------------------|
G-------------------------------------------------|
D-------------------------------------------------|
A-------------------------------------------------|
E-------------------------------------------------|

Outro:

e-15p12----12---------------------------------------------------------|
B-------15----15p12----12---------------------------------------------|
G-------------------14----14p12----12---------------------------------|
D-------------------------------14----14p12----------------12---------|
A-------------------------------------------14-13-12-13-14------------|
E-------------------------------------------------------------0www\\\-|

e-------|
B-------|
G-9-9-9-|
D-9-9-9-|
A-7-7-7-|
E-------|

Song Order:

Intro
Verse
Pre-Chorus
Chorus
Verse
Pre-Chorus
Chorus
Bridge
Pre-Solo
Solo
Chorus
Intro
Outro

That's it! Hope you guys enjoy playing this as much as I do :)





Comments


Popular Gary Moore tabs & chords
Out In The Fields 2 Bass Tabs
One Day Chords
Parisenne Walkways Chords
Don't Believe A Word Tabs
Out In The Fields Intro 1 Tabs
Parisenne Walkways Tabs
Rectify Tabs
Spanish Guitar 1 Tabs
Still Got The Blues Live Intro Tabs
The Loner 2 Tabs


Song lyrics



↑ Back to top | Tablatures and chords are parodies/interpretations of the original songs. You may use it for private study, scholarship, research or language learning purposes only
© 2014 AZChords.com Contact us | Privacy policy | DMCA | Add/correct tabs | Request tabs | Top 50 tabs