» » »

Gary Moore, The Loner Tabs (ver.4)

Artists:  A B C D E F G H I J K L M N O P Q R S T U V W X Y Z # 

The Loner Tabs (ver.4)

Gary Moore Tabs
 Rating:
4/5 (4 votes)
The Loner lessons Tabs too difficult? Try these video lessons and learn fast
                (Intro)
e|--------------------------------------------------------------------|
B|----------------3---------------------------------------------------|
G|-0---5-7/8--0-1--------3-5-7----------------------------------------|
D|---------------------3--------3-5-----------------------------------|
A|--------------------------------------------------------------------|
E|--------------------------------------------------------------------|

e|--------------------------------------------------------------------|
B|--------------------------------------------------------------------|
G|--------------------------------------------------------------------|
D|---1-3-5-----5---5-7-7^(8)-7-5-7------------------------------------|
A|-1-------1-0--------------------------------------------------------|
E|--------------------------------------------------------------------|

e|--------------------------------------------------------------------|
B|--------------------------------------------------------------------|
G|-5^(7)-5-3-2--------------5^(7)-5-3-2-------------------------------|
D|--------------5-3---5------------------5-3-5------------------------|
A|------------------5-------------------------------------------------|
E|--------------------------------------------------------------------|

e|--------------------------------------------------------------------|
B|---8-10/11------11--------6-8/10------------------------------------|
G|-7----------7/8---------5--------5/7--------------------------------|
D|--------------------------------------------------------------------|
A|--------------------------------------------------------------------|
E|--------------------------------------------------------------------|

e|---------------------------------------------------------------------|
B|-----6/8-----8----8-10-10^11-10-8-8^9--------------------------------|
G|---8-----7^8---------------------------------------------------------|
D|-8-------------------------------------------------------------------|
A|---------------------------------------------------------------------|
E|---------------------------------------------------------------------|

e|---------------------------------------------------------------------|
B|---8-10/11------10^11----------8-10----------------------------------|
G|-7----------7-8-------------10---------------------------------------|
D|-------------------------10----------10/12---------------------------|
A|---------------------------------------------------------------------|
E|---------------------------------------------------------------------|

e|---------------------------------------------------------------------|
B|--------------8---8-10-10^11-10-8-8^10-------------------------------|
G|---8-10-12-----------------------------------------------------------|
D|-8----------7--------------------------------------------------------|
A|---------------------------------------------------------------------|
E|---------------------------------------------------------------------|

To be Continued..!
            
Submit corrections

comments powered by Disqus
↑ Back to top | Gary Moore Tabs for The Loner. Lyrics for acoustic guitar and electric guitar. Tablatures and chords are parodies/interpretations of the original songs. You may use it for private study, scholarship, research or language learning purposes only