>
 >
Supernatural

Supernatural Guitar Tabs

Gary Moore - Supernatural chords, tabs, tablatures, lyrics

Guitar lessons | Add/correct | Request | Top 50 tabs Artists:  A B C D E F G H I J K L M N O P Q R S T U V W X Y Z 0-9

Supernatural Guitar Tabs – Gary Moore

CD, Sheet music, Poster

Do you like Supernatural? Share with your friends now
Tabs
The Supernatural
Gary Moore

Part 1

E|-13~~~~~~~~~~~~~~~~~~~~~--13\x-------------------|
B|-------------------------------------------------|
G|-------------------------------------------------|
D|-------------------------------------------------|
A|-------------------------------------------------|
E|-------------------------------------------------|


E|------------------------------------------------------------------|
B|--------------------------------------------13p10----10~~~--------|
G|-12b14b12-10~~~--12-10-12-12b13-12b14~~~~~~-------12~~-------12\x-|
D|------------------------------------------------------------------|
A|------------------------------------------------------------------|
E|------------------------------------------------------------------|


E|-------------------------------------------------|
B|-13p10-13b15~~~~~~~-13-10------------------------|
G|--------------------------12b14b12p10-----10\x---|
D|--------------------------------------12~~-------|
A|-------------------------------------------------|
E|-------------------------------------------------|


E|---10-------------13b15-13b15-13-10----------------------------------|
B|-10---13-13b15~~~-------------------10--------13-10--13b15~13b15~~~~-|
G|---------------------------------------12~~~-------------------------|
D|---------------------------------------------------------------------|
A|---------------------------------------------------------------------|
E|---------------------------------------------------------------------|


E|-------------------------------------------------------------|
B|-13-10------------------------------------------10-----------|
G|-------12b14-12-10-12--10h12p10---------------x10------------|
D|--------------------------------12-10-10/12--x10-------------|
A|----------------------------------------------------12~~~~~--|
E|-------------------------------------------------------------|


Part 2

E|-17~~~~~~~~~~~~~~~~~~~~~--17\x-------------------|
B|-------------------------------------------------|
G|-------------------------------------------------|
D|-------------------------------------------------|
A|-------------------------------------------------|
E|-------------------------------------------------|


E|-10----------10-----------------------------------------------|
B|----13-13b15---13-10----------------------------13p10----13\x-|
G|---------------------12b-10-12-12b13-12b14~~~~~~-----12~------|
D|--------------------------------------------------------------|
A|--------------------------------------------------------------|
E|--------------------------------------------------------------|


E|----10-13-15-15b17~~~~~~~-15b17-15b17-15b17b15-13------13\x---|
B|-10-----------------------------------------------15~~~-------|
G|--------------------------------------------------------------|
D|--------------------------------------------------------------|
A|--------------------------------------------------------------|
E|--------------------------------------------------------------|


E|-10-13-13b15~~~~-13-15-13b15-13~~~~~~~~-\x-------|
B|-------------------------------------------------|
G|-------------------------------------------------|
D|-------------------------------------------------|
A|-------------------------------------------------|
E|-------------------------------------------------|


E|-------------10-----10---------------------------------------------------------------------|
B|-13-10-13b15----13b----13---------------------------------------------------------10-------|
G|--------------------------12h14p12p10-12~p10h12h14-12h14p12p10-------------------10--------|
D|---------------------------------------------------------------12-10--10/12~~~~-10---------|
A|-------------------------------------------------------------------------------------12~~--|
E|-------------------------------------------------------------------------------------------|


Part 3

E|-20~~~~~~~~~~~~~~~~~~~~~--20\x-------------------|
B|-------------------------------------------------|
G|-------------------------------------------------|
D|-------------------------------------------------|
A|-------------------------------------------------|
E|-------------------------------------------------|


E|-------10--------------10-13-15-13-15b17~~~-15b17-15b17-15b17-15b17-15b17~~~~~-15\x-----|
B|-13b15----13-10~~~~-10------------------------------------------------------------------|
G|----------------------------------------------------------------------------------------|
D|----------------------------------------------------------------------------------------|
A|----------------------------------------------------------------------------------------|
E|----------------------------------------------------------------------------------------|


E|----10-13b15~~~~~10h13p10----10-------------------------------------|
B|-10-----------------------13----13----------------------------------|
G|-----------------------------------12b13b12p10-----10~~~\x----------|
D|-----------------------------------------------12~~-----------------|
A|--------------------------------------------------------------------|
E|--------------------------------------------------------------------|


E|-------------10-------------------------------------------------------------------------|
B|----------------13-10-------------------------------------------------------------------|
G|----10-12b14----------12b13b12p10-12-10-12b14------------13p10---10---------------------|
D|-12-------------------------------------------12-12~~~~~-------12---10-----------10\x---|
A|------------------------------------------------------------------------12-12~~~~-------|
E|----------------------------------------------------------------------------------------|


E|-------------------------------------------------------------|
B|-------------------------------------10~---------------------|
G|--5h7p5------------------5/7~~~~~--x10-----------------------|
D|--------7--3--5--3h5p3------------x10------7~~~~~~~~~~~------|
A|-----------------------3-------------------------------------|
E|-------------------------------------------------------------|



Part 4

E|-22~~~~~~~~~~~~~~~~~~~~~--22\x-------------------|
B|-------------------------------------------------|
G|-------------------------------------------------|
D|-------------------------------------------------|
A|-------------------------------------------------|
E|-------------------------------------------------|


E|-15b17---15b17-15b17-15b17----13-15-15b17~~~~~~~~~~---15b17b15p13--15~~~~-13------|
B|---------------------------15-----------------------------------------------------|
G|----------------------------------------------------------------------------------|
D|----------------------------------------------------------------------------------|
A|----------------------------------------------------------------------------------|
E|----------------------------------------------------------------------------------|


E|----10-13-13b15~~~~--13-10--------------------------------------|
B|-10------------------------13-10--------------------------------|
G|---------------------------------12-12b13b12p10----12\x---------|
D|------------------------------------------------12--------------|
A|----------------------------------------------------------------|
E|----------------------------------------------------------------|


E|-20b22~~~~~~~~~~15b17b15p13-----------13\x---------------|
B|----------------------------15-15~~~~--------------------|
G|---------------------------------------------------------|
D|---------------------------------------------------------|
A|---------------------------------------------------------|
E|---------------------------------------------------------|


E|-----13-15-15b17--15b17--15b17b15p13-15---------|
B|-/15------------------------------------15------|
G|------------------------------------------------|
D|------------------------------------------------|
A|------------------------------------------------|
E|------------------------------------------------|


E|-13b15-13-10--------------------------------------------------------------|
B|-------------13-10--------------------------------------------------------|
G|-------------------12b14b12p10--------------------------------------------|
D|-------------------------------12-12~~~~~10h12p10-------------------------|
A|--------------------------------------------------12-10--10/12~~~~~-------|
E|--------------------------------------------------------------------------|


E|-------13~~~~\x--15b17----13-15-15b17-15-13~~~~---13b15~~~~~~~~~-|
B|-13/15-----------------15----------------------10----------------|
G|-----------------------------------------------------------------|
D|-----------------------------------------------------------------|
A|-----------------------------------------------------------------|
E|-----------------------------------------------------------------|


E|-13--10-13-10----10-----------------------------------------------------------------------------|
B|--------------13----10-13-10-13-10--------------------------------------------------------------|
G|-----------------------------------12-13-12-10-------10-----------------------------------------|
D|-----------------------------------------------12-10----12-10--------------------------------10-|
A|--------------------------------------------------------------12-11-10----------------10-12-----|
E|-----------------------------------------------------------------------13-10-8-10-13------------|

E|-----------10---------|
B|--------10------------|
G|-----10---------------|
D|--12------------------|
A|----------------------|
E|----------------------|

Dante A. Cabrera Nuņez





Comments


Popular Gary Moore tabs & chords
The Loner Bass Tabs
The Stumble Bass Tabs
Don't You Lie To Me (I Get Evil) Tabs
Empty Rooms 2 Tabs
Parisenne Walkways Tabs
Rectify 1 Tabs
Run For Cover Tabs
The Loner 2 Tabs
Dont Let Me Be Misunderstood Ukulele
Out In The Fields Ukulele


Song lyrics



↑ Back to top | Tablatures and chords are parodies/interpretations of the original songs. You may use it for private study, scholarship, research or language learning purposes only
© 2014 AZChords.com Contact us | Privacy policy | DMCA | Add/correct tabs | Request tabs | Top 50 tabs