» » »

Still Got The Blues Bass tabs (ver.1)

Artists:  A B C D E F G H I J K L M N O P Q R S T U V W X Y Z # 

Still Got The Blues Bass tabs (ver.1)

Gary Moore
Rating:
0/5 (0 votes)

Hard to play? Try these video lessons and learn fast.
                Gary Moore - Still Got The Blues
Standard Tuning: EADG
Tabbey By: RTBM

Intro
G|-----------------------------------|
D|---------32--2---------------------|
A|-5---3-----2--2----7---------------|
E|---3---1-------3-5--8-5------------|


Verse I
G|----------------------------------------|
D|--------5---3-32--2---------------------|
A|----7-5---3-----2--2---------------7-5--|
E|-5-8----------------3-5-5-77-88-5-8-----|


Verse I-II 
G|-----------------------------------|
D|----5---3-32-----------------------|
A|--5---3-----2--2--7777-7777-7777---|
E|-----------------------------------|


Chorus I
G|-----------------------------------|
D|-----------------------------------|
A|---------5---7---7-----------------|
E|-5-0--35---1---5--8-5--------------|


Verse II
G|-----------------------------------|
D|---5---3-32--2---------------------|
A|-5---3-----2---2------------7-5----|
E|----------------3-5-7-8--5-8-------|


Verse II-II
G|-----------------------------------|
D|----5---3-32-----------------------|
A|--5---3-----2--2--7777-7777-7777---|
E|-----------------------------------|


Chorus I
G|-----------------------------------|
D|-----------------------------------|
A|---------5---7---7-----------------|
E|-5-0--35---1---5---56--------------|


Bridge
G|-----------------------------------|
D|---2-------------------------------|
A|----2------------7-787-5--7--------|
E|-7---3-5-7-8--567-------5--8-5-----|


Guitar solo
G|------------------------------------------------------------------|
D|--------------32--2------------------------32---------------------|
A|----7-5---3-----2---2------------7-5---3-----2-2--7777-7777-7777--|
E|-5-8----3---1--------3-5-7-8--5-8----3---1------------------------|


Chorus II
G|------------------------------------|
D|------------------------------------|
A|--------5---7---77777--------5-87---|
E|-5-0-35---1---5-------5-0-35--------|

Play Verse till end!
            
Hard to play? Try these video lessons and learn fast. | Correct




comments powered by Disqus
↑ Back to top | Tablatures and chords are parodies/interpretations of the original songs. You may use it for private study, scholarship, research or language learning purposes only