>
 >
Still Got The Blues 2

Still Got The Blues 2 Guitar Tabs

Gary Moore - Still Got The Blues 2 chords, tabs, tablatures, lyrics

Guitar lessons | Add/correct | Request | Top 50 tabs Artists:  A B C D E F G H I J K L M N O P Q R S T U V W X Y Z 0-9

Still Got The Blues 2 Guitar Tabs – Gary Moore

CD, Sheet music, Poster

Do you like Still Got The Blues 2? Share with your friends now
Bass TabsBass Tabs v2Bass Tabs v3ChordsChords v2TabsTabs v2Tabs v3Tabs v4Ukulele

STILL GOT THE BLUES
As recorded by Gary Moore
(From the 1990 Album STILL GOT THE BLUES)

	

Words and Music by Gary Moore

Dm7
x x 0 2 1 1
	
Dm7/G
x 4 x 2 1 1
	
Cmaj7
x 3 2 0 0 0
	
Fmaj7
x x 3 2 1 0

Bm7b5
x 2 0 2 3 1
	
E7
0 2 0 1 0 0
	
Am
x 0 2 2 1 0
	
Em7
x 7 9 7 8 7

D9
x 5 4 5 5 5
	
E7+9
0 7 6 7 8 x
	
AmV
5 7 7 5 5 5
	
Em
x 7 9 9 8 7

Gtr I (E A D G B E) - 'Gary Moore (Lead Gtr.)'
Gtr II (E A D G B E) - 'Gary Moore (Rhythm Gtr.)'

 Intro
  Slow blues Q.=48
                     Dm7                             Dm7/G
 6/8
          Gtr I
  Q.   E.  S  S  S    Q.         +E.     E       S    Q.      +Q     S  S
|------------------|-------------------------------|----------------------|
|------------15-17-|-17b18======(17)r---17b18r==17-|-15------(15)---13-15-|
|---------14-------|-------------------------------|----------------------|
|------------------|-------------------------------|----------------------|
|------------------|-------------------------------|----------------------|
|------------------|-------------------------------|----------------------|
|
|         Gtr II
| W                   E     E E   E   E       E       E  E E   E  E  E
|------------------|--------------1----------------|-----------1----------|
|------------------|----------1-------1------------|-------1------1-------|
|------------------|--------2-----------------2----|-----2-----------2----|
|------------------|--0----------------------------|----------------------|
|------------------|-------------------------------|----------------------|
|------------------|-------------------------------|--3-------------------|


  Cmaj7                             Fmaj7
   Q.         +E.     E       +S     Q    +E   E.    S  S  S
|---------------------------------|---------------------------|
|-15b17======(15)r---15b17r==(15)-|-13---(13)\------10-12-13--|
|---------------------------------|---------------------------|
|---------------------------------|---------------------------|
|---------------------------------|---------------------------|
|---------------------------------|---------------------------|
|
|  E     E E   E   E       E         E E   E   E  E     E
|--------------0------------------|------------0--------------|
|----------0-------0--------------|--------1------1-----------|
|--------0-----------------0------|----2----------------2-----|
|---------------------------------|--3------------------------|
|--3------------------------------|---------------------------|
|---------------------------------|---------------------------|


  Bm7b5                           E7
   ~~~~~~~~~~~~~~~~
   Q.         +E    E.      +S     Q.      +E    E  E
|-------------------------------|---------------------|
|-13b15======(13)r-13b15r==(13)-|-12------(12)-^10----|
|-------------------------------|--------------^-x-12-|
|-------------------------------|--------------^-x----|
|-------------------------------|---------------------|
|-------------------------------|---------------------|
|
|  E     E E   E    E    E         E  E E   E    E  E
|--------------1----------------|-----------0---------|
|----------3--------3-----------|-------0--------0----|
|--------2---------------2------|-----1-------------1-|
|-------------------------------|---------------------|
|--2----------------------------|---------------------|
|-------------------------------|--0------------------|


                                        1st Verse
  Am                                     Dm7           Dm7/G
   ~~~~~~
   H.                 +E    E Q   Q      W             W
|------------------|------------------||-------------|---------------|
|------------------|------------------||-------------|---------------|
|-12b14============|=(12)r\-----------||-------------|---------------|
|------------------|------------------||-------------|---------------|
|------------------|------------------||-------------|---------------|
|------------------|------------------||-------------|---------------|
|
|  E     E E E E E     E    E E E E E    E E E E E E   E E E E E E
|------------------|------------------||-------1-----|-------1-------|
|------------1-----|------------------||-----1---1---|-----1---1-----|
|----------2---2---|------------------||---2-------2-|---2-------2---|
|--------2-------2-|----------------2-||-0-----------|---------------|
|--0---------------|---0--------0-3---||-------------|---------------|
|------------------|------------------||-------------|-3-------------|


  Cmaj7         Fmaj7         Bm7b5
  Gtr II
  E E E E E E   E E E E E E   E E E E E E
|-------0-----|-------0-----|-------1-----|
|-----0---0---|-----1---1---|-----3---3---|
|---0-------0-|---2-------2-|---2-------2-|
|-------------|-3-----------|-------------|
|-3-----------|-------------|-2-----------|
|-------------|-------------|-------------|


  E7            Am
  E E E E E E   E E E E E E   Q  E E E E
|-------0-----|-------------|------------||
|-----0---0---|-----1-----1-|------------||
|---1-------1-|-----2-----2-|------------||
|-------------|---2-----0---|----------2-||
|-------------|-0-----2-----|-3----0-3---||
|-0-----------|-------------|------------||


 2nd Verse
  Dm7           Dm7/G         Cmaj7
  E E E E E E   E E E E E E   E E E E E E
|-------1-----|-------1-----|-------0-----|
|-----1---1---|-----1---1---|-----0---0---|
|---2-------2-|---2-------2-|---0-------0-|
|-0-----------|-------------|-------------|
|-------------|-------------|-3-----------|
|-------------|-3-----------|-------------|


  Fmaj7         Bm7b5
  E E E E E E   E E E E E E   E E E E E E
|-------0-----|-------1-----|-------1-----|
|-----1---1---|-----3---3---|-----3---3---|
|---2-------2-|---2-------2-|---2-------2-|
|-3-----------|-------------|-------------|
|-------------|-2-----------|-2-----------|
|-------------|-------------|-------------|


                              Chorus
  E7                           Am
  Gtr I
      <
  E E E E E E   E E E E E E    H.
|-------------|-------------||--------------|
|-------------|-------------||--------------|
|-------------|-------------||--------------|
|-------------|-------------||--------------|
|-x-x-2-2-2-2-|-2-2-2-2-2-2-||-7------------|
|-----0-0-0-0-|-0-0-0-0-0-0-||-5------------|
|
| Gtr II
| E E E E E E   E E E E E E    E  E E E E E
|-------------|-------------||-5--5-5-5-5-5-|
|-------------|-------------||-5--5-5-5-5-5-|
|-------------|-------------||-5--5-5-5-5-5-|
|-------------|-------------||-7--7-7-7-7-7-|
|-2-2-2-2-2-2-|-2-2-2-2-2-2-||-7--7-7-7-7-7-|
|-0-0-0-0-0-0-|-0-0-0-0-0-0-||-5--5-5-5-5-5-|


  Em7            Am             D9
  H.             H.             H.
|-7------------|--------------|-5------------|
|-8------------|--------------|-5------------|
|-7------------|--------------|-5------------|
|-9------------|--------------|-4------------|
|-7------------|-7------------|-5------------|
|--------------|-5------------|--------------|
|
| E  E E E E E   E  E E E E E   E  E E E E E
|-7--7-7-7-7-7-|-5--5-5-5-5-5-|-5--5-5-5-5-5-|
|-8--8-8-8-8-8-|-5--5-5-5-5-5-|-5--5-5-5-5-5-|
|-9--9-9-9-9-9-|-5--5-5-5-5-5-|-5--5-5-5-5-5-|
|-9--9-9-9-9-9-|-7--7-7-7-7-7-|-4--4-4-4-4-4-|
|-7--7-7-7-7-7-|-7--7-7-7-7-7-|-5--5-5-5-5-5-|
|--------------|-5--5-5-5-5-5-|--------------|


                                              3rd Verse
  F9        E7+9      Am                       Dm7           Dm7/G
  H.        H.        H.        E E H          W             Q.     E a E E
|-8-------|---------|---------|-------------||-------------|------------------|
|-8-------|-8-------|---------|-------------||-------------|--------------8---|
|-8-------|-7-------|---------|-------------||-------------|----------7s9-----|
|-7-------|-6-------|---------|-------------||-------------|------------------|
|-8-------|-7-------|-7-------|-7-----------||-------------|------------------|
|---------|---------|-5-------|-5-----------||-------------|------------------|
|
| H.        H.        H.        E Q   E E E    E E E E E E   E  E E E   E E
|-8-------|---------|-5-------|-5-----------||-------1-----|--------1---------|
|-8-------|-8-------|-5-------|-5-----------||-----1---1---|------1-----1-----|
|-8-------|-7-------|-5-------|-5-----------||---2-------2-|----2---------2---|
|-7-------|-6-------|-7-------|-7---------2-||-0-----------|------------------|
|-8-------|-7-------|-7-------|-7-----0-3---||-------------|------------------|
|---------|---------|-5-------|-5-----------||-------------|-3----------------|


  Cmaj7          Fmaj7                 Bm7b5                E7
  H.             Q.     E.   S S S     +S  S S S E Q.       Q.     E S   +S  E
|--------------|-------------5-------|--------------------|--------------------|
|-8------------|---------------8-----|--------------------|--------------------|
|--------------|-----------------7b8r|=(7)-5--------------|----------7b8r(7)p5-|
|--------------|---------------------|-------7------------|--------------------|
|--------------|---------------------|--------------------|--------------------|
|--------------|---------------------|--------------------|--------------------|
|
| E  E E E E E   E  E E E  E   E        E    E   E E  E E   E  E E E E       E
|--------0-----|--------0------------|-------------1------|--------0-----------|
|------0---0---|------1----1---------|-----------3----3---|------0---0---------|
|----0-------0-|----2----------2-----|-------2----------2-|----1-------------1-|
|--------------|-3-------------------|--------------------|--------------------|
|-3------------|---------------------|--2-----------------|--------------------|
|--------------|---------------------|--------------------|-0------------------|


                                       4th Verse
  Am                                    Dm7                       Dm7/G
                                              ~~~~~~
  W             Q.    Q      S   +S     +S  S S +Q      Q     S   W
|-------------|----------------------||-------------------------|-------------|
|-------------|-------8b10-----------||-------------------------|-------------|
|-------------|--------------7b8r(7)-||-(7)p5-------------------|-------------|
|-------------|----------------------||-------7-(7)-------------|-------------|
|-------------|----------------------||-------------------------|-------------|
|-------------|----------------------||-------------------------|-------------|
|
| E E E E E E   Q   E E    E E           E    E     E E   E E     E E E E E E
|-------------|----------------------||---------------1---------|-------1-----|
|-----1-----1-|----------------------||-------------1-----1-----|-----1---1---|
|-----2-----2-|----------------------||-------2-------------2---|---2-------2-|
|---2-----0---|--------------2-------||--0----------------------|-------------|
|-0-----2-----|-3-----0----3---------||-------------------------|-------------|
|-------------|----------------------||-------------------------|-3-----------|


  Cmaj7         Fmaj7             Bm7b5
                                   ~~~~~
  W             Q.     E   E  E    H.               Q   S  S  E  E  E
|-------------|-----------------|-----------------|-------10----------|
|-------------|--------------13-|-13b15-----------|----------13-10-13-|
|-------------|----------/14----|-----------------|-------------------|
|-------------|-----------------|-----------------|-------------------|
|-------------|-----------------|-----------------|-------------------|
|-------------|-----------------|-----------------|-------------------|
|
| E E E E E E   E  E E E   E  E    E    E E E E E   E E E     E  E  E
|-------0-----|--------0--------|-----------1-----|-----------1-------|
|-----0---0---|------1-----1----|---------3---3---|-----3--------3----|
|---0-------0-|----2----------2-|-------2-------2-|---2-------------2-|
|-------------|-3---------------|-----------------|-------------------|
|-3-----------|-----------------|--2--------------|-2-----------------|
|-------------|-----------------|-----------------|-------------------|


  E
  W              Q.         +Q     +E
|-------------|--------------------------||
|-------------|-15b17======(15)---(15)r\-||
|-------------|--------------------------||
|-------------|--------------------------||
|-------------|--------------------------||
|-------------|--------------------------||
|
| E E E E E E    E     E E   E  E   E
|-------------|--------------------------||
|-------------|--------------------------||
|-------------|--------------------------||
|-------------|--------------------------||
|-2-2-2-2-2-2-|--2-----2-2---2--2---2----||
|-0-0-0-0-0-0-|--0-----0-0---0--0---0----||


 Chorus
  Am            Em            Am            D9
  W             W             W             W
|-------------|-------------|-------------|-------------|
|-------------|-------------|-------------|-------------|
|-------------|-------------|-------------|-------------|
|-------------|-------------|-------------|-------------|
|-------------|-------------|-------------|-------------|
|-------------|-------------|-------------|-------------|
|
| E E E E E E   E E E E E E   E E E E E E   E E E E E E
|-5-5-5-5-5-5-|-7-7-7-7-7-7-|-5-5-5-5-5-5-|-5-5-5-5-5-5-|
|-5-5-5-5-5-5-|-8-8-8-8-8-8-|-5-5-5-5-5-5-|-5-5-5-5-5-5-|
|-5-5-5-5-5-5-|-9-9-9-9-9-9-|-5-5-5-5-5-5-|-5-5-5-5-5-5-|
|-7-7-7-7-7-7-|-9-9-9-9-9-9-|-7-7-7-7-7-7-|-4-4-4-4-4-4-|
|-7-7-7-7-7-7-|-7-7-7-7-7-7-|-7-7-7-7-7-7-|-5-5-5-5-5-5-|
|-5-5-5-5-5-5-|-------------|-5-5-5-5-5-5-|-------------|


  F9        E7+9      Am
                                              ~~
                              |---3---|
  W         W         Q.   E  S   +S  S S S   Q.     +E   Q
|---------|---------|-----------------------|-----------------||
|---------|---------|-----------------------|-----------------||
|---------|---------|---------7b9r(7)p5-----|-----------------||
|---------|---------|-------------------7-7-|-7------(7)\-----||
|---------|---------|-----------------------|-----------------||
|---------|---------|-----------------------|-----------------||
|
| ~~~~~~~~~~~~~~~~~~~~~~~~~~~~~~~~~
| H.        H.        H      +E         E     E  E E  E   E E
|-8-------|---------|-5------(5)--------5---|-5--5-5--5---5-5-||
|-8-------|-8-------|-5------(5)--------5---|-5--5-5--5---5-5-||
|-8-------|-7-------|-5------(5)--------5---|-5--5-5--5---5-5-||
|-7-------|-6-------|-7------(7)--------7---|-7--7-7--7---7-7-||
|-8-------|-7-------|-7------(7)--------7---|-7--7-7--7---7-7-||
|---------|---------|-5------(5)--------5---|-5--5-5--5---5-5-||


 Bridge
  Bm7           Bm/E          Am       Am/B    Am/C
  W             W              W               Q.      Q        +S    S
|-------------|-------------|----------------|--------------------------|
|-------------|-------------|----------------|--------13b15====(13)rp10-|
|-------------|-------------|----------------|--------------------------|
|-------------|-------------|----------------|--------------------------|
|-------------|-------------|----------------|--------------------------|
|-------------|-------------|----------------|--------------------------|
|
| E E E E E E   E E E E E E    E  E  E E E E   E  E E  E     E   E
|-7-7-7-7-7-7-|-7-7-7-7-7-7-|--8--8--8-7-7-7-|-5--5-5--5-----5---5------|
|-7-7-7-7-7-7-|-7-7-7-7-7-7-|--8--8--8-8-8-8-|-5--5-5--5-----5---5------|
|-7-7-7-7-7-7-|-7-7-7-7-7-7-|--9--9--9-7-7-7-|-5--5-5--5-----5---5------|
|-7-7-7-7-7-7-|-6-6-6-6-6-6-|-10-10-10-9-9-9-|-7--7-7--7-----7---7------|
|-9-9-9-9-9-9-|-7-7-7-7-7-7-|----------------|--------------------------|
|-7-7-7-7-7-7-|-------------|----------------|--------------------------|


  Bm7                       Bm7/E
         ~~~~~~~~~~~~~~~~~~~~~~~~~
   E     Q        +Q.        +Q     +E  Q.
|-------------------------|----------------------|
|-13b15r13b15====(13)-----|-(13)r==(13)----------|
|-------------------------|----------------------|
|-------------------------|----------------------|
|-------------------------|----------------------|
|-------------------------|----------------------|
|
|  E     E     E   E  E E     E  E   E  E  E E
|--7-----7-----7---7--7-7-|---7--7---7--7--7-7---|
|--7-----7-----7---7--7-7-|---7--7---7--7--7-7---|
|--7-----7-----7---7--7-7-|---7--7---7--7--7-7---|
|--7-----7-----7---7--7-7-|---6--6---6--6--6-6---|
|--9-----9-----9---9--9-9-|---7--7---7--7--7-7---|
|--7-----7-----7---7--7-7-|----------------------|


  Fmaj7Em7    Dm7       Am
  W           W         W             Q.    E.    S  S  S
|-----------|---------|-------------|---------------------||
|-----------|---------|-------------|---------------15-17-||
|-----------|---------|-------------|------------14-------||
|-----------|---------|-------------|---------------------||
|-----------|---------|-------------|---------------------||
|-----------|---------|-------------|---------------------||
|
| Q.   Q.     H.        E E E E E E   E  Q  E  E     E
|-3---------|---------|-5-5-5-5-5-5-|-5-------------------||
|-4----8----|-6-------|-5-5-5-5-5-5-|-5-------------------||
|-2----7----|-5-------|-5-5-5-5-5-5-|-5-------------------||
|-3----9----|-7-------|-7-7-7-7-7-7-|-7--------------2----||
|------7----|-5-------|-7-7-7-7-7-7-|-7-----0--3----------||
|-----------|---------|-5-5-5-5-5-5-|-5-------------------||


 Guitar Solo
  Dm7                           Dm7/G
   ~~~~~~~~~~~~~~~~              ~~~
   Q.         +Q      S     S    Q.      +E.     S  S  S
|-----------------------------|--------------------------|
|-17b18======(17)r---17b18-17-|-15------(15)\------13-15-|
|-----------------------------|-----------------12-------|
|-----------------------------|--------------------------|
|-----------------------------|--------------------------|
|-----------------------------|--------------------------|
|
|  E     E E   E   E  E          E  E E   E   E     E
|--------------1--------------|-----------1--------------|
|----------1-------1----------|-------1-------1----------|
|--------2------------2-------|-----2---------------2----|
|--0--------------------------|--------------------------|
|-----------------------------|--------------------------|
|-----------------------------|--3-----------------------|


  Cmaj7                           Fmaj7
   ~~~~~~~~~~~~~~~~                ~~
   Q.         +E    E.      +S     Q    +E   E.    S  S  S
|-------------------------------|--------------------------|
|-15b17======(15)r-15b17r==(15)-|-13---(13)\------10-12-13-|
|-------------------------------|--------------------------|
|-------------------------------|--------------------------|
|-------------------------------|--------------------------|
|-------------------------------|--------------------------|
|
|  E     E E   E    E    E         E E   E   E  E     E
|--------------0----------------|------------0-------------|
|----------0--------0-----------|--------1------1----------|
|--------0---------------0------|----2----------------2----|
|-------------------------------|--3-----------------------|
|--3----------------------------|--------------------------|
|-------------------------------|--------------------------|


  Bm7b5                           E7
   ~~~~~~~~~~~~~~~~
   Q.         +E    E.      +S     Q.      +E   E  E
|-------------------------------|-------------------------|
|-13b15======(13)r-13b15r==(13)-|-12------(12)-10---------|
|-------------------------------|-----------------12b12.5-|
|-------------------------------|-------------------------|
|-------------------------------|-------------------------|
|-------------------------------|-------------------------|
|
|  E     E E   E    E    E         E  E E   E   E  E
|--------------1----------------|-----------0-------------|
|----------3--------3-----------|-------0-------0---------|
|--------2---------------2------|-----1------------1------|
|-------------------------------|-------------------------|
|-------------------------------|-------------------------|
|--2----------------------------|--0----------------------|


  Am
   ~~~~~~~~~~~
   Q.      Q.        Q       +Q      S  S  S  S
|-----------------|-----------------------------|
|-10------12------|-12b13===(12)r\--------15-17-|
|-----------------|--------------------14-------|
|-----------------|-----------------------------|
|-----------------|-----------------------------|
|-----------------|-----------------------------|
|
|  E  E E  E  E E    Q        E    E E     E
|-----------------|-----------------------------|
|-------1-------1-|-----------------------------|
|-------2-------2-|-----------------------------|
|-----2-------0---|------------------------2----|
|--0-------2------|--3-------------0-3----------|
|-----------------|-----------------------------|


  Dm7                     Dm7/G
   ~~~~~~~~~~~~~~~~                    ~~~~~~~~~~~
   Q.         +Q      E    S     +S   +Q     +E   S  S  S  S
|--------------------15-|------------------------------------|
|-17b18======(17)r------|-15b17r(15)-(15)---(15)\------13-15-|
|-----------------------|---------------------------12-------|
|-----------------------|------------------------------------|
|-----------------------|------------------------------------|
|-----------------------|------------------------------------|
|
|  E     E E   E   E  E    E           E  E   E   E     E
|--------------1--------|---------------------1--------------|
|----------1-------1----|-----------------1-------1----------|
|--------2------------2-|--------------2----------------2----|
|--0--------------------|------------------------------------|
|-----------------------|------------------------------------|
|-----------------------|--3---------------------------------|


  Cmaj7                            Fmaj7
                                    ~~~
   Q.         +E   S  S  S     S    Q.      +E   S  S  S  S
|--------------------13----------|---------------------------|
|-15b17======(15)r------15b17-15-|-13------(13)\---10-12-13--|
|--------------------------------|---------------------------|
|--------------------------------|---------------------------|
|--------------------------------|---------------------------|
|--------------------------------|---------------------------|
|
|  E     E E   E   E     E          E  E E   E   E     E
|--------------0-----------------|-----------0---------------|
|----------0-------0-------------|-------1-------1-----------|
|--------0---------------0-------|-----2---------------2-----|
|--------------------------------|--3------------------------|
|--3-----------------------------|---------------------------|
|--------------------------------|---------------------------|


  Bm7b5
                                          ~~~~~~~~~~
   Q.        Q       +S   S    E     +E   E     +E   T  T  S  E
|---------------------------|-----------------------10----------|
|-13b15-----13b15r==(13)p10-|-13b15r(13)-13b15r(13)----13-10\---|
|---------------------------|-----------------------------------|
|---------------------------|-----------------------------------|
|---------------------------|-----------------------------------|
|---------------------------|-----------------------------------|
|
|  E    E E  E    E   E        E      E   E      E   E        E
|------------1--------------|--------------------1--------------|
|---------3-------3---------|-------------3----------3----------|
|-------2-------------2-----|---------2-----------------------2-|
|---------------------------|-----------------------------------|
|--2------------------------|--2--------------------------------|
|---------------------------|-----------------------------------|


  E7
   Q       E      +S    S  S  S  S     S
|-20b22---20b21==(20)r-17----------------|
|-------------------------20-17-------17-|
|-------------------------------19b20----|
|----------------------------------------|
|----------------------------------------|
|----------------------------------------|
|
|  E    E  E       E       E     E
|----------------------------------------|
|----------------------------------------|
|----------------------------------------|
|----------------------------------------|
|--2----2--2-------2-------2-----2-------|
|--0----0--0-------0-------0-----0-------|


                                                                                      |----3-----|
   T     +T   T  T  T  T  T  T      +T    T  T  T  T  T  T  T  T     +T   T  T  T  T  T  T 
|-------------------------------------------17---------------------------------------------------|
|----------------------------------------17----17-20p17----17------------------------------------|
|19b20r(19)-17----19----17-19b21==(19)r--------------19----19b21r(19)-17-19----17-19-19b21==(19)r|
|---------------19----19-------------------------------------------------------19----------------|
|------------------------------------------------------------------------------------------------|
|------------------------------------------------------------------------------------------------|
|
|  E                E                E             E           E                E
|------------------------------------------------------------------------------------------------|
|------------------------------------------------------------------------------------------------|
|------------------------------------------------------------------------------------------------|
|------------------------------------------------------------------------------------------------|
|--2----------------2----------------2-------------2-----------2----------------2----------------|
|--0----------------0----------------0-------------0-----------0----------------0----------------|


 Chorus
  Am             Em             Am             D9             F9        E7+9
  H.             H.             H.             H.             H.        H.
|--------------|-7------------|--------------|-5------------|-8-------|-------|
|--------------|-8------------|--------------|-5------------|-8-------|-8-----|
|--------------|-9------------|--------------|-5------------|-8-------|-7-----|
|-7------------|-9------------|-7------------|-4------------|-7-------|-6-----|
|-7------------|-7------------|-7------------|-5------------|-8-------|-7-----|
|-5------------|--------------|-5------------|--------------|---------|-------|
|
| E  E E E E E   E  E E E E E   E  E E E E E   E  E E E E E   H.        H.
|-5--5-5-5-5-5-|-7--7-7-7-7-7-|-5--5-5-5-5-5-|-5--5-5-5-5-5-|-8-------|-------|
|-5--5-5-5-5-5-|-8--8-8-8-8-8-|-5--5-5-5-5-5-|-5--5-5-5-5-5-|-8-------|-8-----|
|-5--5-5-5-5-5-|-9--9-9-9-9-9-|-5--5-5-5-5-5-|-5--5-5-5-5-5-|-8-------|-7-----|
|-7--7-7-7-7-7-|-9--9-9-9-9-9-|-7--7-7-7-7-7-|-4--4-4-4-4-4-|-7-------|-6-----|
|-7--7-7-7-7-7-|-7--7-7-7-7-7-|-7--7-7-7-7-7-|-5--5-5-5-5-5-|-8-------|-7-----|
|-5--5-5-5-5-5-|--------------|-5--5-5-5-5-5-|--------------|---------|-------|


  Am        E7+9           Am
  W         E  E E E E E   W
|---------|--------------|-------------|
|---------|----9-9-9-9-9-|-------------|
|---------|----7-7-7-7-7-|-------------|
|---------|----9-9-9-9-9-|-------------|
|---------|-x--7-7-7-7-7-|-------------|
|---------|-x--0-0-0-0-0-|-------------|
|
| H.        H.             E E E E E E
|-5-------|--------------|-5-5-5-5-5-5-|
|-5-------|-8------------|-5-5-5-5-5-5-|
|-5-------|-7------------|-5-5-5-5-5-5-|
|-7-------|-6------------|-7-7-7-7-7-7-|
|-7-------|-7------------|-7-7-7-7-7-7-|
|-5-------|--------------|-5-5-5-5-5-5-|


  Em            Am            D9
  W             W             W
|-------------|-------------|-------------|
|-------------|-------------|-------------|
|-------------|-------------|-------------|
|-------------|-------------|-------------|
|-------------|-------------|-------------|
|-------------|-------------|-------------|
|
| E E E E E E   E E E E E E   E E E E E E
|-7-7-7-7-7-7-|-5-5-5-5-5-5-|-5-5-5-5-5-5-|
|-8-8-8-8-8-8-|-5-5-5-5-5-5-|-5-5-5-5-5-5-|
|-9-9-9-9-9-9-|-5-5-5-5-5-5-|-5-5-5-5-5-5-|
|-9-9-9-9-9-9-|-7-7-7-7-7-7-|-4-4-4-4-4-4-|
|-7-7-7-7-7-7-|-7-7-7-7-7-7-|-5-5-5-5-5-5-|
|-------------|-5-5-5-5-5-5-|-------------|


  F9           E7+9
  Q.   Q.      Q.    E.    S  S  S
|------------|---------------------||
|------------|---------------15-17-||
|------7b8---|------------14-------||
|------------|---------------------||
|------------|---------------------||
|------------|---------------------||
|
| H.           Q.   +E  Q
|------------|---------------------||
|-8----------|-8----(8)------------||
|-8----------|-7----(7)------------||
|-7----------|-6----(6)------------||
|-8----------|-7----(7)------------||
|------------|---------------------||


 Outro - Solo
  Dm7                             Dm7/G
   ~~~~~~~~~~~~~~~~                ~~~
   Q.         +Q      +S      S    Q.      +S    S  E  E
|-------------------------------|------------------------|
|-17b18======(17)r---(17)b18-17-|-15------(15)\----13-15-|
|-------------------------------|---------------12-------|
|-------------------------------|------------------------|
|-------------------------------|------------------------|
|-------------------------------|------------------------|
|
|  E     E E   E   E   E           E  E E   E       E  E
|--------------1----------------|-----------1------------|
|----------1-------1------------|-------1-----------1----|
|--------2-------------2--------|-----2----------------2-|
|--0----------------------------|------------------------|
|-------------------------------|------------------------|
|-------------------------------|--3---------------------|


  Cmaj7                           Fmaj7
   ~~~~~~~~~~~~~~~~                ~~
   Q.         +E    E.      +S     Q    +E   E.    S  S  S
|-------------------------------|--------------------------|
|-15b17======(15)r-15b17r==(15)-|-13---(13)\------10-12-13-|
|-------------------------------|--------------------------|
|-------------------------------|--------------------------|
|-------------------------------|--------------------------|
|-------------------------------|--------------------------|
|
|  E     E E   E    E    E         E E   E   E  E     E
|--------------0----------------|------------0-------------|
|----------0--------0-----------|--------1------1----------|
|--------0---------------0------|----2----------------2----|
|-------------------------------|--3-----------------------|
|--3----------------------------|--------------------------|
|-------------------------------|--------------------------|


  Bm7b5                      E7
   ~~~~~~~~~~~~~~~~
   Q.         +E    Q         Q.     E   E  E
|--------------------------|------------------|
|-13b15======(13)r-13b15---|-12--------^10-12-|
|--------------------------|-----------^-x----|
|--------------------------|-----------^-x----|
|--------------------------|------------------|
|--------------------------|------------------|
|
|  E     E E   E    E    E    E  E E E   E  E
|--------------1-----------|---------0--------|
|----------3--------3------|-------0-----0----|
|--------2---------------2-|-----1----------1-|
|--------------------------|------------------|
|--2-----------------------|------------------|
|--------------------------|--0---------------|


  Am
   ~~~~~~~~~~~~~~~~~~~~~~~~~~~~~~~~~~~~~~
   Q.        Q.          Q.        +E    S  S  S  S
|---------------------|-----------------------------||
|-12b13-----13b15-----|-15b17=====(15)r\------15-17-||
|---------------------|--------------------14-------||
|---------------------|-----------------------------||
|---------------------|-----------------------------||
|---------------------|-----------------------------||
|
|  E    E E  E    E E    Q      E   E    E     E
|---------------------|-----------------------------||
|---------1---------1-|-----------------------------||
|---------2---------2-|-----------------------------||
|-------2---------0---|------------------------2----||
|--0---------2--------|--3----------0----3----------||
|---------------------|-----------------------------||


  Dm7                         Dm7/G
   ~~~~~~~~~~~~~~~             ~~~
   Q.         +Q     +S   S    Q.      +E   S  S  S  S
|---------------------------|--------------------------|
|-17b18======(17)---(17)r17-|-15------(15)\------13-15-|
|---------------------------|-----------------12-------|
|---------------------------|--------------------------|
|---------------------------|--------------------------|
|---------------------------|--------------------------|
|
|  E     E E   E  E   E        E  E E   E   E     E
|--------------1------------|-----------1--------------|
|----------1------1---------|-------1-------1----------|
|--------2------------2-----|-----2---------------2----|
|--0------------------------|--------------------------|
|---------------------------|--------------------------|
|---------------------------|--3-----------------------|


  Cmaj7                            Fmaj7
                                    ~~~
   Q.         +E.     S  S     S    Q.      +E.     S  S  S
|--------------------13----------|---------------------------|
|-15b17======(15)r------15b17-15-|-13------(13)\---10-12-13--|
|--------------------------------|---------------------------|
|--------------------------------|---------------------------|
|--------------------------------|---------------------------|
|--------------------------------|---------------------------|
|
|  E     E E   E   E     E          E  E E   E   E     E
|--------------0-----------------|-----------0---------------|
|----------0-------0-------------|-------1-------1-----------|
|--------0---------------0-------|-----2---------------2-----|
|--------------------------------|--3------------------------|
|--3-----------------------------|---------------------------|
|--------------------------------|---------------------------|


  Bm7b5                           E7
                                   ~~~~~~~~~~~~
   Q.         +E    E.      +S     Q.      +E   E  E
|-------------------------------|-------------------------|
|-13b15======(13)r-13b15r==(13)-|-12------(12)-10---------|
|-------------------------------|-----------------12b12.5-|
|-------------------------------|-------------------------|
|-------------------------------|-------------------------|
|-------------------------------|-------------------------|
|
|  E     E E   E    E    E         E  E E   E   E  E
|--------------1----------------|-----------0-------------|
|----------3--------3-----------|-------0-------0---------|
|--------2---------------2------|-----1------------1------|
|-------------------------------|-------------------------|
|--2----------------------------|-------------------------|
|-------------------------------|--0----------------------|


  Am
   ~~~
   Q.      S      +S    S  S  S     S    S  S     S  S  S     S  S  S     S  S  S  S
|-------------------------------------|----------------------------------------10-12-|
|-10-------------------10-10-------10-|-10-------10-10-------10-10-------10-13-------|
|---------12b14==(12)r-------12b14----|----12b14-------12b14-------12b14-------------|
|-------------------------------------|----------------------------------------------|
|-------------------------------------|----------------------------------------------|
|-------------------------------------|----------------------------------------------|
|
|  E  E E  E            E     E          Q              E        E        E     E
|-------------------------------------|----------------------------------------------|
|-------1---------------------1-------|----------------------------------------------|
|-------2---------------------2-------|----------------------------------------------|
|-----2-----------------0-------------|-----------------------------------------2----|
|--0-------2--------------------------|--3-----------------------0--------3----------|
|-------------------------------------|----------------------------------------------|


  Dm7                           Dm7/G
                                 ~~~~~~~~~~~~~~~~
   Q.         +Q        E        Q.         +Q      E
|-12b13======(12)b13---12pb13-|-12b13======(12)r---15-|
|-----------------------------|-----------------------|
|-----------------------------|-----------------------|
|-----------------------------|-----------------------|
|-----------------------------|-----------------------|
|-----------------------------|-----------------------|
|
|  E     E E   E     E  E        E     E E   E   E  E
|--------------1--------------|--------------1--------|
|----------1---------1--------|----------1-------1----|
|--------2--------------2-----|--------2------------2-|
|--0--------------------------|-----------------------|
|-----------------------------|--3--------------------|
|-----------------------------|-----------------------|


  Cmaj7                               Fmaj7
         ~~~~~~~~~~~~~~
   E     Q        +E   +S   S  S  S    E  E    E S  S  S       S  E
|-----------------------------------|-------------------------10-12--|
|-15b17-15b17====(15)r(15)-13-15----|-13-15b16-----10-13b13.5--------|
|--------------------------------14-|--------------------------------|
|-----------------------------------|--------------------------------|
|-----------------------------------|--------------------------------|
|-----------------------------------|--------------------------------|
|
|  E     E     E   E    E      E       E  E    E E     E          E
|------------------0----------------|------------0-------------------|
|--------------0--------0-----------|----------1-------1-------------|
|--------0---------------------0----|-----2-----------------------2--|
|-----------------------------------|--3-----------------------------|
|--3--------------------------------|--------------------------------|
|-----------------------------------|--------------------------------|


  Bm7b5
   |--3---|
   E     +S   S  S  S  T  T  T  T  a  T  T  E.      +S
|-12b13r(12)p10-12----10----------------10--------------|
|------------------13----13p10----10h13----13b15r==(13)-|
|------------------------------12-----------------------|
|-------------------------------------------------------|
|-------------------------------------------------------|
|-------------------------------------------------------|
|
|  E          E     E        E              E    E
|----------------------------1--------------------------|
|-------------------3-----------------------3-----------|
|-------------2----------------------------------2------|
|-------------------------------------------------------|
|--2----------------------------------------------------|
|-------------------------------------------------------|


  E7                                        Am
   ~~                                       ~                  ~~
   Q    T  T  S E  S      +S    S     +S    Q   +E   Q.        Q   E  S    +S   E  E
|-----------------------------------------|------------------|------------------------|
|-12---10h12p10-9-10b12==(10)r-10b12r(10)-|------------------|------------------------|
|-----------------------------------------|-9---(9)\-5b7-----|-5s=13\-----------------|
|-----------------------------------------|------------------|------------------------|
|-----------------------------------------|------------------|------------------0-[3]-|
|-----------------------------------------|------------------|--------3b4==(3)r-------|
|
|  E E  E       E  E            E           E E  E   E   E E   Q   E  E         E  E
|---------------0-------------------------|------------------|------------------------|
|-------0----------0----------------------|------1---------1-|------------------------|
|----1--------------------------1---------|------2---------2-|------------------------|
|-----------------------------------------|---2----------0---|---------------------2--|
|-----------------------------------------|-0--------2-------|-3------0---------3-----|
|--0--------------------------------------|------------------|------------------------|


  Dm7               Dm7/G
      ~~~~~~~~
                    |--3---|                 |--3--|
  E   Q   +E  E E   E E    E  E  S  S  S  S  S  S  S
|-----------------|----------------------------------|
|-----------------|----------------------------10h13-|
|-----------------|-------------------10----10-------|
|-------------3s7-|-5s7h==10-12-10-12----12----------|
|-5b7-5---(5)-----|----------12----------------------|
|-----------------|----------------------------------|
|
| E   E E  E  E E   E   E     E  E     E     E
|----------1------|--------------1-------------------|
|-------1-----1---|-----------1--------1-------------|
|-----2---------2-|-----2--------------------2-------|
|-0---------------|----------------------------------|
|-----------------|----------------------------------|
|-----------------|-3--------------------------------|


  Cmaj7                               Fmaj7
      ~~~~~~~~~~~~
   |--3---|        |--3--|                                         |---3----|
   S  S  +S   +E   S  S  S  E  E  E    Q        +S    S  Q        +S   +S   S
|-----------------------------------|----------------15------------------------|
|-10h12-(12)-(12)-10h12p10----10-13-|-15b17====(15)r----15b17====(15)r(15)-13--|
|--------------------------12-------|------------------------------------------|
|-----------------------------------|------------------------------------------|
|-----------------------------------|------------------------------------------|
|-----------------------------------|------------------------------------------|
|
|  E           E   E        E  E  E    E     E   E       E     E   E
|---------------------------0-------|--------------------0---------------------|
|------------------0-----------0----|------------1-------------1---------------|
|--------------0------------------0-|--------2---------------------2-----------|
|-----------------------------------|--3---------------------------------------|
|--3--------------------------------|------------------------------------------|
|-----------------------------------|------------------------------------------|


  Bm7b5
           ~~~~
   E      +Q     +E   S  S  E
|--------------------------10-|
|-15pb17r(15)---(15)\---13----|
|-----------------------------|
|-----------------------------|
|-----------------------------|
|-----------------------------|
|
|  E       E  E   E   E     E
|-----------------1-----------|
|-------------3-------3-------|
|----------2----------------2-|
|-----------------------------|
|--2--------------------------|
|-----------------------------|


  E7
   |----3-----|  |--3--|  |--3--|  |--3--|  |--3--|  |--3--|
   S  S       S  S  S  S  S  S  S  S  S  S  S  S  S  S  S  S
|-10---------10-12p10-13-10-12p10----10----------------------|
|----13b13.5----------------------13----13-12-10----12p10----|
|------------------------------------------------13-------13-|
|------------------------------------------------------------|
|------------------------------------------------------------|
|------------------------------------------------------------|
|
|  E             E        E        E        E        E
|----------------------------------0-------------------------|
|-------------------------0-----------------0----------------|
|----------------1-----------------------------------1-------|
|------------------------------------------------------------|
|------------------------------------------------------------|
|--0---------------------------------------------------------|


  Am         Am/B
       |-3-|
   E E S S S  E E E    E  Q       S  S  S  S     S  S
|-------------------|------------17-----------------------|
|-10----------------|----20b22------20-17-------17--------|
|----9-7h9p7--------|---------------------19b21----19b20r=|
|------------10s9-7s|=19----------------------------------|
|-------------------|-------------------------------------|
|-------------------|-------------------------------------|
|
|  E E E      E E E    Q       E  E     E        E
|-------------------|-------------------------------------|
|------1----------1-|-------------------------------------|
|------2----------2-|-------------------------------------|
|----2----------0---|----------------------------2--------|
|--0----------2-----|--3----------0-----3-----------------|
|-------------------|-------------------------------------|


  Dm7                                              Dm7/G
                                                           ~~~~~~~~~~~~~~
    |-----5------|
   +T   T  T  T  T  T  T  T  T  Q        Q          E      Q        +Q      E
|---------------------------17-20b22====20b22====|=20b22==20b22====(20)r---20-|
|------------------------17----------------------|----------------------------|
|-(19)p17----19----17h19-------------------------|----------------------------|
|---------19----19-------------------------------|----------------------------|
|------------------------------------------------|----------------------------|
|------------------------------------------------|----------------------------|
|
|   E               E           E     E  E     E    E      E     E   E   E  E
|-------------------------------------1----------|-------------------1--------|
|-------------------------------1--------1-------|---------------1-------1----|
|-------------------2--------------------------2-|---------2----------------2-|
|---0--------------------------------------------|----------------------------|
|------------------------------------------------|----------------------------|
|------------------------------------------------|--3-------------------------|


     Cmaj7
         |--3--|
   a  E  S  S  S  Q         T  T  T  T  T  T  T  T
|-17h19-17h19p17-----------17----------------------|
|----------------20b20.5------17h20p17----17-------|
|--------------------------------------19----19p17-|
|--------------------------------------------------|
|--------------------------------------------------|
|--------------------------------------------------|
|
|     E  E        E      E  E           E
|------------------------0-------------------------|
|-----------------0---------0----------------------|
|--------0------------------------------0----------|
|--------------------------------------------------|
|-----3--------------------------------------------|
|--------------------------------------------------|


  Fmaj7
   T  T  T  T  T  T  T  T      +S    S  S     S  S      S  T     T  S
|-------------------17--------------17-------17--------17-------17-20b22==|
|----------------17----20b22==(20)r----20b22----20b22=====20b22-----------|
|----19----17h19----------------------------------------------------------|
|-19----19----------------------------------------------------------------|
|-------------------------------------------------------------------------|
|-------------------------------------------------------------------------|
|
|  E           E                E       E        E         E
|---------------------------------------0---------------------------------|
|-------------------------------1----------------1------------------------|
|--------------2-------------------------------------------2--------------|
|--3----------------------------------------------------------------------|
|-------------------------------------------------------------------------|
|-------------------------------------------------------------------------|


  Bm7b5
            |--3--|                                |3-|
   +S    S  S  S  S  T  T  T  T  T  T  T  T  T  T  T  S  E
|-(20)r-20-17----------------------------------------------|
|-------------20-17----------------------------------------|
|-------------------20p19p17----19----17-20p19p17-19-19-19-|
|----------------------------19----19----------------------|
|----------------------------------------------------------|
|----------------------------------------------------------|
|
|   E       E        E           E           E           E
|--------------------------------1-------------------------|
|--------------------3-----------------------3-------------|
|-----------2--------------------------------------------2-|
|----------------------------------------------------------|
|---2------------------------------------------------------|
|----------------------------------------------------------|


  E7
                       |---3----|  |---3----|
   +E   E  E  S.    T  S     S  S  S  S     S
|---------------------------------------------|
|------------------17-------17-20p17-------17-|
|-(19)-17\---19b21----19b21----------19b21----|
|---------------------------------------------|
|---------------------------------------------|
|---------------------------------------------|
|
|   E   E  E  E        E           E
|-------------0-------------------------------|
|----------0-----------0----------------------|
|-------1--------------------------1----------|
|---------------------------------------------|
|---------------------------------------------|
|---0-----------------------------------------|


  Am                               Am/B
   |--3--|  |---3----|  |---3----|  |--3--|     |--3--|  |---3----|
   S  S  S  S     S  S  S  S     S  S  S  S     S  S  S  S     S  S
|-------------------------------------------------------------------|
|-17h20p17-------17h20p17-------17h20p17-------17h20p17-------17-17-|
|----------19b21----------19b21----------19b21----------19b21-------|
|-------------------------------------------------------------------|
|-------------------------------------------------------------------|
|-------------------------------------------------------------------|
|
|  E        E           E           E           E        E
|-------------------------------------------------------------------|
|-----------------------1--------------------------------1----------|
|-----------------------2--------------------------------2----------|
|-----------2-----------------------------------0-------------------|
|--0--------------------------------2-------------------------------|
|-------------------------------------------------------------------|


   E  Q        +E    E     +E
|----22b24====(22)r-22b24r(22)-|
|------------------------------|
|------------------------------|
|-19---------------------------|
|------------------------------|
|------------------------------|
|
|  Q        E   E    E      E
|------------------------------|
|------------------------------|
|------------------------------|
|---------------------------2--|
|--3------------0----3---------|
|------------------------------|


  Dm7                                       Dm7/G
   E     E.      S      +E   E.      S       E     E     +E     E   Q
|-22b24r22b24r==22b24==(22)r22b24r==22b24r|=22b24r22b24r(22)b24r===19b20---|
|-----------------------------------------|---------------------x\---------|
|-----------------------------------------|---------------------x\---------|
|-----------------------------------------|---------------------x\---------|
|-----------------------------------------|--------------------------------|
|-----------------------------------------|--------------------------------|
|
|  E     E    E          E   E    E          E     E      E     E   E    E
|------------------------1----------------|---------------------1----------|
|-------------1--------------1------------|---------------1---------1------|
|--------2------------------------2-------|--------2---------------------2-|
|--0--------------------------------------|--------------------------------|
|-----------------------------------------|--------------------------------|
|-----------------------------------------|--3-----------------------------|


  Cmaj7
     |---6----|                          |-3--|
  E  T  T  S  S  T  T  T  T  T  T  T  T  S S  S  T  T  T  T
|---19-17-19----17------------------------------------------|
|------------20----20-17----17------------------------------|
|------------------------19----19-17----19-x-17-------------|
|------------------------------------19---------------------|
|-----------------------------------------------19s17s15----|
|--------------------------------------------------------17-|
|
| E  E           E           E           E       E
|----------------------------0------------------------------|
|----------------0-----------------------0------------------|
|----0-------------------------------------------0----------|
|-----------------------------------------------------------|
|-3---------------------------------------------------------|
|-----------------------------------------------------------|


  Fmaj7
   T  T  T  T  S     S  +E   Q    E
|------------------------------------|
|------------------------------------|
|------------------------------------|
|------------------------------------|
|-17----15-17-17b18-17-(17)-15\------|
|----17------------------------------|
|
|  E           E         E   E  E E
|----------------------------0-------|
|------------------------1------1----|
|--------------2------------------2--|
|--3---------------------------------|
|------------------------------------|
|------------------------------------|


  Bm7b5                 E7
   Q.        Q.          E.      E.      E     Q
|-20b22-----20b22-----|-20b22---20b22---20b22-20b22---|
|---------------------|-------------------------------|
|---------------------|-------------------------------|
|---------------------|-------------------------------|
|---------------------|-------------------------------|
|---------------------|-------------------------------|
|
|  E    E E  E    E E    E    E       E  E     E    E
|------------1--------|------------------0------------|
|---------3-------3---|---------------0--------0------|
|-------2-----------2-|-------1---------------------1-|
|---------------------|-------------------------------|
|--2------------------|-------------------------------|
|---------------------|--0----------------------------|


  Am
                                ~~       ~~~~~~~~~~~~~~~
              |------3-------|
  S  S  S  S  S        +S    S  E E E    Q.        +E   S  S  S  S
|---20-17-20-20b20.5==(20)r-20-17-----|-22b24=====(22)r-------------|
|-------------------------------------|----------------------15-17--|
|---------------------------------x-0-|-------------------14--------|
|---------------------------------x-0-|-----------------x-----------|
|-------------------------------------|-----------------------------|
|-------------------------------------|-----------------------------|
|
| E     E     E                 E E E    Q      E   E   E     E
|-------------------------------------|-----------------------------|
|-------------1---------------------1-|-----------------------------|
|-------------2---------------------2-|-----------------------------|
|-------2-------------------------0---|-----------------------2-----|
|-0-----------------------------2-----|--3----------0---3-----------|
|-------------------------------------|-----------------------------|


  Dm7                              Dm7/G
   ~~~~~~~~~~~~~~~~                 ~~~~~~~~~~~~
   Q.         +E    E     +S   S    Q.      +E   S   S  S  S
|--------------------------------|---------------------------|
|-17b18======(17)r-17b18r(17)-17-|-15------(15)-15\----13-15-|
|--------------------------------|------------------12-------|
|--------------------------------|---------------------------|
|--------------------------------|---------------------------|
|--------------------------------|---------------------------|
|
|  E     E E   E    E      E        E  E E   E   E      E
|--------------1-----------------|-----------1---------------|
|----------1--------1------------|-------1-------1-----------|
|--------2-----------------2-----|-----2----------------2----|
|--0-----------------------------|---------------------------|
|--------------------------------|---------------------------|
|--------------------------------|--3------------------------|


  Cmaj7                         Fmaj7
   ~~~~~                         ~~~
   Q.        E     +E.    +S     Q.      E S  S  S  S
|-----------------------------|-----------------------|
|-15b17-----15b17r(15)---(15)-|-13------13s0-10-12-13-|
|-----------------------------|-----------------------|
|-----------------------------|-----------------------|
|-----------------------------|-----------------------|
|-----------------------------|-----------------------|
|
|  E    E E  E      E  E         E  E E  E E     E
|------------0----------------|----------0------------|
|---------0---------0---------|-------1----1----------|
|-------0--------------0------|-----2------------2----|
|-----------------------------|--3--------------------|
|--3--------------------------|-----------------------|
|-----------------------------|-----------------------|


  Bm7b5                            E7
   ~~~~~~~~~~~~~~~~                 ~~~~~~~~~~~~
   Q.         +E    E     +S   S    Q.      +S  S  E  E
|--------------------------------|----------------------|
|-13b15======(13)r-13b15r(13)-13-|-12------(12)-x-10----|
|--------------------------------|--------------x----12-|
|--------------------------------|----------------------|
|--------------------------------|----------------------|
|--------------------------------|----------------------|
|
|  E     E E   E    E      E        E  E E   E     E  E
|--------------1-----------------|-----------0----------|
|----------3--------3------------|-------0---------0----|
|--------2-----------------2-----|-----1--------------1-|
|--------------------------------|----------------------|
|--2-----------------------------|----------------------|
|--------------------------------|--0-------------------|


  Am
   ~~
   Q   E  Q    S     +S     Q   E E S  S  S  S
|------------------------|---------------------|
|-10-----12---13b15r(13)-|-13--13sx------15-17-|
|------9-----------------|------------14-------|
|------------------------|---------------------|
|------------------------|---------------------|
|------------------------|---------------------|
|
|  E E E  E E  E            Q   E E E     E
|------------------------|---------------------|
|------1-------1---------|---------------------|
|------2-------2---------|---------------------|
|----2------0------------|----------------2----|
|--0------2--------------|--3-----0-3----------|
|------------------------|---------------------|


  Dm7                     Dm7/G
   ~~~~~~~~~~~~~~~~        ~~~~~~~~~~~~
   Q.         +Q      E    Q.      +E  S  S  S  S
|-----------------------|-------------------------|
|-17b18======(17)r---17-|-15------(15)------13-15-|
|-----------------------|----------------12-------|
|-----------------------|-------------------------|
|-----------------------|-------------------------|
|-----------------------|-------------------------|
|
|  E     E E   E   E  E    E  E E   E  E     E
|--------------1--------|-----------1-------------|
|----------1-------1----|-------1------1----------|
|--------2------------2-|-----2--------------2----|
|--0--------------------|-------------------------|
|-----------------------|-------------------------|
|-----------------------|--3----------------------|


  Cmaj7                        Fmaj7
   Q       E  Q       +S   S    S  S  +Q    E.    S  S  S
|---------15-----------------|----------------------------|
|-15b17------15b17r==(15)p13-|-15p13-(13)--------10-12-13-|
|----------------------------|----------------------------|
|----------------------------|----------------------------|
|----------------------------|----------------------------|
|----------------------------|----------------------------|
|
|  E    E  E  E    E   E        E      E  E E  E     E
|-------------0--------------|--------------0-------------|
|----------0-------0---------|------------1----1----------|
|-------0--------------0-----|---------2-------------2----|
|----------------------------|--3-------------------------|
|--3-------------------------|----------------------------|
|----------------------------|----------------------------|


                                        Free Time Cadenza
  Bm7b5                    E7            Am
                                                 |-3-|   |-3-|   |-3-|
   Q.         +Q     +E     Q.   E Q     Q     E T T T S T T T S T T T S
|------------------------|------------||-------8-5h8p5-------------------|
|-13b15======(13)r==(13)-|-12----9----||-8b10----------8-5h8p5-----------|
|------------------------|---------9--||-----------------------7-5h7p5---|
|------------------------|------------||-------------------------------7-|
|------------------------|------------||---------------------------------|
|------------------------|------------||---------------------------------|
|
|  E     E E   E  E   E     H.           H.
|--------------1---------|------------||-0-------------------------------|
|----------3------3------|------------||-0-------------------------------|
|--------2------------2--|------------||-1-------------------------------|
|------------------------|------------||-2-------------------------------|
|--2---------------------|------------||-2-------------------------------|
|------------------------|--0---------||---------------------------------|


                                                            ~~
            |-----7-----| |----6----|
   T  T T T T T T T T T T T T T T T T S S S S S S     S  S  Q  +Q.
|---------------5----------------------------------|------------------*|
|-----------5-8---8-5------------------------------|------------------*|
|--7----5h7-----------8p7p5---7---5---5-4----------|------------------*|
|-----7---------------------7---7---7-----7-5------|------------------*|
|---------------------------------------------7-5\-|--3--2------------*|
|--------------------------------------------------|-------/5--(5)----*|
|
| +H.                                                +H.
|-(0)----------------------------------------------|-(0)--------------*|
|-(0)----------------------------------------------|-(0)--------------*|
|-(1)----------------------------------------------|-(1)--------------*|
|-(2)----------------------------------------------|-(2)--------------*|
|-(2)----------------------------------------------|-(2)--------------*|
|--------------------------------------------------|------------------*|



Duration Legend
---------------
W - whole; H - half; Q - quarter; E - 8th; S - 16th; T - 32nd; X - 64th; a - acciaccatura
+ - note tied to previous; . - note dotted; .. - note double dotted
Uncapitalized letters represent notes that are staccato (1/2 duration)
Irregular groupings are notated above the duration line
Duration letters will always appear directly above the note/fret number it represents the
duration for.  Duration letters with no fret number below them represent rests.  Multi-
bar rests are notated in the form Wxn, where n is the number of bars to rest for.  Low
melody durations appear below the staff

Tablature Legend
----------------
 h   - hammer-on
 p   - pull-off
 b   - bend
 pb  - pre-bend
 r   - bend release (if no number after the r, then release immediately)
 /\  - slide into or out of (from/to "nowhere")
 s   - legato slide
 S   - shift slide
 - natural harmonic
[n]  - artificial harmonic
n(n) - tapped harmonic
 ~   - vibrato
 tr  - trill
 T   - tap
 TP  - trem. picking
 PM  - palm muting
\n/  - tremolo bar dip; n = amount to dip
 \n  - tremolo bar down
 n/  - tremolo bar up
/n\  - tremolo bar inverted dip
 =   - hold bend; also acts as connecting device for hammers/pulls
 <> - volume swell (louder/softer)
 x   - on rhythm slash represents muted slash
 o   - on rhythm slash represents single note slash

Misc Legend
-----------
 |  - bar
||  - double bar
||o - repeat start
o|| - repeat end
*|  - double bar (ending)
 :  - bar (freetime)
 $  - Segno
 &  - Coda
Tempo markers -  = BPM(8/16=s8/s16), where s8 = swing 8ths, s16 = swing 16ths





Comments


Popular Gary Moore tabs & chords
Moving On Bass Tabs
Out In The Fields Intro 1 Tabs
Over The Hills And Far Away 1 Tabs
Picture Of The Moon 1 Tabs
Rectify 1 Tabs
Still Got The Blues Tabs
The Thrill Is Gone Tabs
I Had A Dream Ukulele
Just Cant Let You Go Ukulele
Still Got The Blues Ukulele


Song lyrics



↑ Back to top | Tablatures and chords are parodies/interpretations of the original songs. You may use it for private study, scholarship, research or language learning purposes only
© 2014 AZChords.com Contact us | Privacy policy | DMCA | Add/correct tabs | Request tabs | Top 50 tabs