>
 >
Spanish Guitar

Spanish Guitar Guitar Tabs

Gary Moore - Spanish Guitar chords, tabs, tablatures, lyrics

Guitar lessons | Add/correct | Request | Top 50 tabs Artists:  A B C D E F G H I J K L M N O P Q R S T U V W X Y Z 0-9

Spanish Guitar Guitar Tabs – Gary Moore

CD, Sheet music, Poster

Do you like Spanish Guitar? Share with your friends now
TabsTabs v2
First Section
e|-------------------------------------------------------|
b|-------------------------------------------------------|
g|--------------------4-5---------4---------2------------|
d|---2---2-4-5--2-4-5-----7-5-7-7---5-4-5-5---4h5p2-4----|
a|-2---2-------------------------------------------------|
e|-------------------------------------------------------|

e|---------------------------------------------------------|
b|---------------------------------------------------------|
g|--------------------4-5---------4------------------------|
d|---2---2-4-5--2-4-5-----7-5-7-7---5-4-5-4\2--------------|
a|-2---2-------------------------------------2-------------|
e|---------------------------------------------3-0---------|

e|---------------------------------------------------------------------|
b|------------------------12-13-----------10-12-------------10---------|
g|---9---9-11-12--9-11-12-------14-12-14--------12-11-12-12----11h12p9-|
d|-9---9---------------------------------------------------------------|
a|---------------------------------------------------------------------|
e|---------------------------------------------------------------------|

e|-------------------------------------------------------------|
b|------------------------12-13-----------10-12----------------|
g|---9---9-11-12--9-11-12-------14-12-14--------12-11-12-11-9--|
d|-9---9-------------------------------------------------------|
a|-------------------------------------------------------------|
e|-------------------------------------------------------------|

e|----12-10-12p10--------------------------------------------|
b|----------------13-12-13-12-13-----15----------------------|
g|-9------------------------------14----14-16b-14-16-14-16---|
d|-----------------------------------------------------------|
a|-----------------------------------------------------------|
e|-----------------------------------------------------------|

e|-----------------------------------------------------12-10--|
b|----13-12h13p12\10------10----10-12-10-10-10p8-10-12--------|
g|-12------------------12----12-------------------------------|
d|------------------------------------------------------------|
a|------------------------------------------------------------|
e|------------------------------------------------------------|

e|------------------------------------------------------------------|
b|-13-12-13-12-13-----15-------------------------13-12h13p12\10-----|
g|-----------------14----14-16b-14-16-14-16---12--------------------|
d|------------------------------------------------------------------|
a|------------------------------------------------------------------|
e|------------------------------------------------------------------|

e|-----------------------------------------------------------|
b|-8-10-11--------------------12b----------------------------|
g|-------------12-11h12p11-9---------------------------------|
d|-----------------------------------------------------------|
a|-----------------------------------------------------------|
e|-----------------------------------------------------------|

e|-----------------------------19-20-17-15-17--17-18-15-14-15-15-16-14h15p12-14--|
b|----17----17-19-20--17-19-20---------------------------------------------------|
e|-16----16----------------------------------------------------------------------|
d|-------------------------------------------------------------------------------|
a|-------------------------------------------------------------------------------|
e|-------------------------------------------------------------------------------|

e|-----------------------------19-20-17-15-17--17-18-15-14-15-14-12---|
b|----17----17-19-20--17-19-20----------------------------------------|
e|-16----16-----------------------------------------------------------|
d|--------------------------------------------------------------------|
a|--------------------------------------------------------------------|
e|--------------------------------------------------------------------|

e|----------------------------------------------12-9----------------------------|
b|---5~--8~------------7-8-9-------------------------12-10---------8-7------7---|
g|---^---^-------------------7~-7/9-11-12------------------12-11\8-----9-8----9-|
d|Tremelo Picking-------------------------10~-----------------------------------|
a|------------------------------------------------------------------------------|
e|------------------------------------------------------------------------------|

e|-------------------------------------------7~-8--------------------|
b|---7-8~---7-8/12-13--10---10---------7-8-9------8-7-8--7-----------|
g|-9-------9--------------12-------8-9---------------------9---------|
d|-------------------------------------------------------------------|
a|-------------------------------------------------------------------|
e|-------------------------------------------------------------------|

e|----12-10-12p10--------------------------------------------|
b|----------------13-12-13-12-13-----15----------------------|
g|-9------------------------------14----14-16b-14-16-14-16---|
d|-----------------------------------------------------------|
a|-----------------------------------------------------------|
e|-----------------------------------------------------------|

e|-----------------------------------------------------12-10--|
b|----13-12h13p12\10------10----10-12-10-10-10p8-10-12--------|
g|-12------------------12----12-------------------------------|
d|------------------------------------------------------------|
a|------------------------------------------------------------|
e|------------------------------------------------------------|

e|------------------------------------------------------------------|
b|-13-12-13-12-13-----15-------------------------13-12h13p12\10-----|
g|-----------------14----14-16b-14-16-14-16---12--------------------|
d|------------------------------------------------------------------|
a|------------------------------------------------------------------|
e|------------------------------------------------------------------|

e|-----------------------------------------------------------|
b|-8-10-11--------------------12b----------------------------|
g|-------------12-11h12p11-9---------------------------------|
d|-----------------------------------------------------------|
a|-----------------------------------------------------------|
e|-----------------------------------------------------------|

e|--14-15-17-------------------------------------------------|
b|-----------15~-15-17~--------------------------------------|
g|-----------------------------------------------------------|
d|-----------------------------------------------------------|
a|-----------------------------------------------------------|
e|-----------------------------------------------------------|

Solo u can work out ureself :D or i might put it on l8a ;)





Comments


Popular Gary Moore tabs & chords
Always Gonna Love You Chords
Walking By Myself Chords
After The War Tabs
City Of Gold Tabs
Dont Believe A Word Tabs
Empty Rooms 3 Tabs
Out In The Fields Tabs
Red House Tabs
Since I Met You Baby Live Tabs
The Loner 1 Tabs


Song lyrics



↑ Back to top | Tablatures and chords are parodies/interpretations of the original songs. You may use it for private study, scholarship, research or language learning purposes only
© 2014 AZChords.com Contact us | Privacy policy | DMCA | Add/correct tabs | Request tabs | Top 50 tabs