» » »

Gary Moore, Memory Pain Tabs (ver.1)

Artists:  A B C D E F G H I J K L M N O P Q R S T U V W X Y Z # 

Memory Pain Tabs (ver.1)

Gary Moore Tabs
 Rating:
4/5 (4 votes)
Memory Pain lessons Tabs too difficult? Try these video lessons and learn fast
                -------------------------------------------------------------------------------
-------------------------------------------------------------------------------

Tuning: E

tr=trill

I love playing this song, but i am not very good a writing tabs or transcribing note for note
the solos are hard to get down as i have little knowledge of tab,but if you know what 
doing you should have no problems
working them out,its all minor across the board with a few hints of dorian.the tab may 
a little off as
i havent sat down and worked it out, its all of the top of my head.I will submit a 
version when i learn how to tab
 properly.This tab is a rough guidline.


                              Main riff
e|---------------------------------------------------------------------------|
B|---------------------------------------------------------------------------|
G|---------------------------------------------------------------------------|
D|-----------------10-------------10-----------------------------------------|
A|-----12-12-10-12----/12-10-12tr--------------------------------------------|
E|---------------------------------------------------------------------------|
           Heavy use of wah,gentle picking of the notes

     Am           Dm (not sure)
e|---0------------1------------------------------------------------------------|
B|---1------------3------------------------------------------------------------|
G|---2---wah wah--2------------------------------------------------------------|
D|---2------------0------------------------------------------------------------|
A|-----------------------------------------------------------------------------|
E|-----------------------------------------------------------------------------|
         distorted wah chords inbetween words repeated a few times


   Em
e|---------------------------------------------------------------------------|
B|---------------------------------------------------------------------------|
G|---------------------------------------------------------------------------|
D|--2-----------------------------------------3------------------------------|
A|--2-----------------------------------------3------------------------------|
E|--0-----------------------------------------1------------------------------|
 lyrics: im living in the memory of a time thats past and gone

e|---------------------------------------------------------------------------|
B|---------------------------------------------------------------------------|
G|------------------6---------7----5------5----------------------------------|
D|-------7--7--5--7-----/-----7----5--7--------------------------------------|
A|---------------------------------------------------------------------------|
E|---------------------------------------------------------------------------|
                 back to main riff, played agressively


                           solos  are in A minor
  there are a few unison bends and hendrix style legato phrases listen to the solo youle 
it out
  i think A minor in all the positons is used here,here is just a few.

e|---------------------------------------------5-------8-----------------------|
B|------------------------------------5-----8----------------------------------|
G|---------------------------5-----7-------------------------------------------|
D|------------------5----7-----------------------------------------------------|
A|-----------5----7------------------------------------------------------------|
E|---5-----8-------------------------------------------------------------------|

e|--------------------------------------------------7----10---------------------|
B|----------------------------------------8-----10------------------------------|
G|--------------------------------7----9----------------------------------------|
D|-----------------------7----10------------------------------------------------|
A|--------------7----10---------------------------------------------------------|
E|---8------10------------------------------------------------------------------|

e|-----------------------------------------------6--8--------------------------|
B|---------------------------------------6---8---------------------------------|
G|--------------------------------5---7----------------------------------------|
D|------------------------5----7-----------------------------------------------|
A|-------------3---5----7------------------------------------------------------|
E|----3----5-------------------------------------------------------------------|

e|---------------------------------------------------------------------------|
B|---------------------------------------------------------------------------|
G|---------------------------------------------------------------------------|
D|-----------------10-------------10-----------------------------------------|
A|-----12-12-10-12----/12-10-12tr--------------------------------------------|
E|---------------------------------------------------------------------------|
back to this,if u have the cd you should be able the order out.

| /  slide up
| \  slide down
| h  hammer-on
| p  pull-off
| ~  vibrato
| +  harmonic
| x  Mute note
===============================================================================
            
Submit corrections

comments powered by Disqus
↑ Back to top | Gary Moore Tabs for Memory Pain. Lyrics for acoustic guitar and electric guitar. Tablatures and chords are parodies/interpretations of the original songs. You may use it for private study, scholarship, research or language learning purposes only