» » »

Gary Moore, Drowning In Tears Tabs (ver.1)

Artists:  A B C D E F G H I J K L M N O P Q R S T U V W X Y Z # 

Drowning In Tears Tabs (ver.1)

Gary Moore Tabs
 Rating:
4.2/5 (5 votes)
Drowning In Tears lessons Tabs too difficult? Try these video lessons and learn fast
1
                Gary Moore – Drowning in Tears

Lots of vibrato and slight bends, which are pointless to write out, so just go by your ears.

Overall n easy song to play, but just remember the feel is the most important thing!!!!!!!

Have fun

0.13  ~~~~~	~~~~~~~~~~~~~			~~~~~~~~~~~~~~~~~
|----------------------------|--------------------------|
|----------------------------|--------------------------|
|--/14-----12/14-/-7/9-------|--------14----12/14-/-7/9\|
|----------------------------|--------------------------|
|----------------------------|--------------------------|
|----------------------------|--------------------------|
				  x2 The woman I love…
			~~~~				  ~~~         ~~~~
|-------------------------------------------------------|
|-------------------------------------------------------|
|------------7/9-------------------7/9---7/9/12/9-------|
|-------------------------------------------------------|
|-------------------------------------------------------|
|-------------------------------------------------------|
she is the one…	    I waited for so many…        now she’s
					   ~~~~~~		    ~~~~
|-------------------------------------------------------|
|-------------------------------------------------------|
|------------------------<14-------12/14—7/9--\0--------|
|-------------------------------------------------------|
|-------------------------------------------------------|
|-------------------------------------------------------|
leaving… + drowning in tears …					I was the
		   ~~~~~~~~~~~~~~~~~~~~~~~~~~~~~~~~~~~~~~~~~~~
|-------------------------------------------------------|
|-------------------------------------------------------|
|-----9/12/14--------------------12-----/9/12/14--------|
|-------------------------------------------------------|
|-------------------------------------------------------|
|-------------------------------------------------------|
one… 		 sending you kisses from the stars
~~~~~~~~~~~~~~~~~~~~~~~~~~~~~~~~~~~~~~~~~~~~~~~~~~~~~~~~
|-------------------------------------------------------|
|-------------------------------------------------------|
|-----------------------------12-/-10----------/7-------|
|-------------------------------------------------------|
|-------------------------------------------------------|
|-------------------------------------------------------|
I was the… fought relentlessly		wishing… hadn’t


	~~~~~~~	~~~~~~~~~~	~~~~~~~~~~~~~~~~~~~~~~~~~~~
|-------------------------------------------------------|
|-------------------------------------------------------|
|-14-----—12/14-/-7/9--------12/14/7/9----------/12/10/9|
|-------------------------------------------------------|
|-------------------------------------------------------|
|-------------------------------------------------------|		    The woman I … 			 I’m 
to…
~~~~~~~~~~~~~~~~~~~~~~~~~~~~~~~~~~~~~~~~~~~~~~~~~~~~~~~~
|-------------------------------------------------------|
|-------------------------------------------------------|
|-------------------12/14-/12-/-9------/12/14-/12-/9----|
|-------------------------------------------------------|
|-------------------------------------------------------|
|-------------------------------------------------------|
she promised her heart…			    I feel…
~~~~~~~~~~~~~~~~~~~~~~~~~~~~~~~~~~~~~~~~~~~~~~~~~~~~~~~~~
|----------------------------------------|--------------|
|----------------------------------------|--------------|
|--14-12/14-/-7/9--------14-12/14-/-7/9--|--------------|
|----------------------------------------|--------------|
|----------------------------------------|--------------|
|----------------------------------------|--------------|

Solo
~~~~~~~~~~~~~~~~~~~~~~~~~~~~~~     ~~~~~~~~       ~~~~~~~
|----------------------------------------------------------|
|------------------------------------B--R------------------|
|-14-12/14—-7/9-----9/12/14--14-16-16(17)16---16/12/14-----|
|----------------------------------------------------------|
|----------------------------------------------------------|
|----------------------------------------------------------|

		~~~~~~       ~~~~~~~~~~~
|----------------------------------b_____r--b----r--b-----|
|--------b______r--p-------------15(17)---15-(16)-15-(16--|
|--14/16(19)-----16-14------------------------------------|
|---------------------------------------------------------|
|---------------------------------------------------------|
|---------------------------------------------------------|

		~~~~~~~~~~~~~~~~grad release~~~~~~~~~~~~~~~~~
|r---p--------------------b____r---b----r--b----r--p------|
|-15—13/12-----------15-15(17)---15-(16)-15-(16)-15-13/12-|
|---------------------------------------------------------|
|---------------------------------------------------------|
|---------------------------------------------------------|
|---------------------------------------------------------|

~~~~~~~~~~~~~~~~~~~~~~~~~~~~~~~~~~~~~~~~~~~~~~~~~~~~~~~~~
|------b____r--b----r--Br--p----------------------------|
|-15-15(17)--15-(16)-15—15---13-/-12-------12/8/10------|
|-------------------------------------------------------|
|-------------------------------------------------------|
|-------------------------------------------------------|
|-------------------------------------------------------|

only pick once     ~~~~~~~~
|-------------------|        ~~~~~~~~---------------------|
|----br-------p-h--------------------------------b___r----|
|-10(11)10--10-8-10----<10/8/10--------10/12-12(14)---12--|
|---------------------------------------------------------|
|---------------------------------------------------------|
|---------------------------------------------------------|
|---------------------------------------------------------|

hold for a long time intil feedback occurs and use vibrato  ~~~~~~~~~~~~~~~~~~~~~~~~~
|------b_____________________________r------------------|
|-15-15(17)---------------------------15----------------|
|-------------------------------------------------------|
|-------------------------------------------------------|
|-------------------------------------------------------|
|-------------------------------------------------------|

	   ~~~~		   ~~~~~~		~~~~~~~~~
|-------------------------------------------------------|
|----------------7--------------------------------b--r--|
|--7-9-7-----7-9---7-9--------7-9-7----------9-7-9(10)9-|
|-------------------------------------------------------|
|-------------------------------------------------------|
|-------------------------------------------------------|
	    ~~~~~~        ~~~~~~~~		  ~~~	    ~~~
|-8-10-12------/15-10-12----------12-15-17----17-15-12--|
|-------------------------------------------------------|
|-------------------------------------------------------|
|-------------------------------------------------------|
|-------------------------------------------------------|
|-------------------------------------------------------|

		~~~~~~
|------------------------b--r—b_______r-----------------|
|--15-12-10------12-15-15(17)15(17)---15-10-12----------|
|-------------------------------------------------------|
|-------------------------------------------------------|
|-------------------------------------------------------|
|-------------------------------------------------------|


		B   		b ______r  p  ~~~~~~~~~~~~~~~~~~~~~~~
|-12-15-15(17)-17/19(21)-----19-17----------------------|
|-------------------------------------------------------|
|-------------------------------------------------------|
|-------------------------------------------------------|
|-------------------------------------------------------|
|-------------------------------------------------------|

~~~~~~~~~~~~~~~~~~~~~~~~~~~~~~~~~~~~~~~~~~~~~~~~~~~~~~~~~
|-------------------------------------------------------|
|-------------------------------------------------------|
|-------------------------------------------------------|
|-------------------------------------------------------|
|-------------------------------------------------------|
|-------------------------------------------------------|


to finish the song just noodle around lots of long held notes around high e,
Sorry but after all this I just couldn’t get those last few notes.
            
Submit corrections

comments powered by Disqus
↑ Back to top | Gary Moore Tabs for Drowning In Tears. Lyrics for acoustic guitar and electric guitar. 1 Tablatures and chords are parodies/interpretations of the original songs. You may use it for private study, scholarship, research or language learning purposes only