>
 >
Don't You Lie To Me (I Get Evil)

Don't You Lie To Me (I Get Evil) Guitar Tabs

Gary Moore - Don't You Lie To Me (I Get Evil) chords, tabs, tablatures, lyrics

Guitar lessons | Add/correct | Request | Top 50 tabs Artists:  A B C D E F G H I J K L M N O P Q R S T U V W X Y Z 0-9

Don't You Lie To Me (I Get Evil) Guitar Tabs – Gary Moore

CD, Sheet music, Poster

Do you like Don't You Lie To Me (I Get Evil)? Share with your friends now
Tabs
DON'T YOU LIE TO ME (I GET EVIL)
As recorded by Gary Moore
(From the 1992 Album AFTER HOURS)

Words and Music by Hudson Whittaker Arranged by Gary Moore

Gtr I (E A D G B E) - 'Gary Moore - Lead w/dist'

Intro
  Q=148
 4/4
  Gtr I
                                   ~~~~~~~
   e  e       e    E      +E    E  E  +Q    E      E
|----10b10.5----|-10b11==(10)r-------------10b10.5---|
|-12---------12-|--------------12-12-(12)------------|
|---------------|------------------------------------|
|---------------|------------------------------------|
|---------------|------------------------------------|
|---------------|------------------------------------|


                                        ~~~~~~~~
  H    Q  E  a      +E     +E   +S   S  Q   +Q.   E
|-----------12b14==(12)-|-(12)r(12)p10---------------|
|-----------------------|--------------12--(12)------|
|-----------------------|----------------------------|
|-----------------------|----------------------------|
|-----------------------|----------------------------|
|-----------------------|----------------------------|


                           ~~~~~~
  H    Q  E  E    S  S  E  Q   Q   Q
|--------------|--------------------------|
|-----------12-|-15p12----12--12--15b17===|
|--------------|-------13-----------------|
|--------------|--------------------------|
|--------------|--------------------------|
|--------------|--------------------------|


                                ~~~~~~~~~~
   +H      +Q     Q          E  Q.    +Q   a     +E  +E
|-------------------------|-------------------------------|
|-(15)----(15)r--15b15.5--|-15-12----(12)-----------------|
|-------------------------|----------------9b11==(9)r(9)--|
|-------------------------|-------------------------------|
|-------------------------|-------------------------------|
|-------------------------|-------------------------------|


                             ~~~~~~~~~~~
  a    +E   E  Q   H       E E +Q   +Q   E E
|-------------(7)-------|----9-(9)--(9)------|
|-----------------------|------------------7-|
|-7b8==(7)r-------------|-/9-----------------|
|-----------------------|--------------------|
|-----------------------|--------------------|
|-----------------------|--------------------|


         ~~~~~~~                    ~~~~~~~~~
   S S E Q  +E  E  E       E        H    +E  a     +E  +S  S E   W
|-10p7---7--(7)---10b10.5-10b10.5-|-7----(7)-------------------|------||
|------7--------7-----------------|----------------------------|------||
|---------------------------------|----------9b10==(9)r(9)p7---|------||
|---------------------------------|--------------------------9-|------||
|---------------------------------|----------------------------|------||
|---------------------------------|----------------------------|------||


 Verse 1
  Wx4          H    Q   a      +Q
|------------|---------12b14==(12)r--|
|------------|-----------------------|
|------------|-----------------------|
|------------|-----------------------|
|------------|-----------------------|
|------------|-----------------------|


                      ~~~~~~~~
   a      +E.   S  E  E  +Q    Q    H    Q  E  a      +E
|-12b14==(12)r-12-10-10-(10)\-----|-----------10b12==(10)-|
|---------------------------------|-----------------------|
|---------------------------------|-----------------------|
|---------------------------------|-----------------------|
|---------------------------------|-----------------------|
|---------------------------------|-----------------------|


                         ~~
   +Q     a      +Q    E Q.     Wx2
|-(10)r--10b11==(10)r--7-7----|------------|
|-----------------------------|------------|
|-----------------------------|------------|
|-----------------------------|------------|
|-----------------------------|------------|
|-----------------------------|------------|


                                                   ~~~~~~
  E  E      +E   S S S S a     +E  +S  S e   E E E E +Q.   E
|--------------------x---------------------|-----------------||
|---10b12==(10)r---x-----------------------|-----------------||
|----------------x-------9b11==(9)r(9)p7---|-7---------------||
|----------------------------------------9-|---9-------------||
|------------------------------------------|-----9-9-(9)-----||
|------------------------------------------|-----------------||


 Verse 2
                                                       ~~~~~~
  Wx4          H    Q   a      +Q       a      +Q    E E +Q.   E
|------------|---------10b12==(10)r--|-10b11==(10)r--7-7-(7)-----|
|------------|-----------------------|---------------------------|
|------------|-----------------------|---------------------------|
|------------|-----------------------|---------------------------|
|------------|-----------------------|---------------------------|
|------------|-----------------------|---------------------------|


                    ~~
  H    Q    e  E    Q   E  a      +E   +E    E Q    Wx3
|----------------|--------------------------------|--------|
|-------------12-|-12-----14b15==(14)-(14)r\------|--------|
|---------/13----|-----13-------------------------|--------|
|----------------|--------------------------------|--------|
|----------------|--------------------------------|--------|
|----------------|--------------------------------|--------|


                      Guitar Solo
                 ~~~~~~~~~~
  H     S  S  E  Q      Q.    E      +Q    Q
|-------------------||------------------------|
|------15p12----12--||-12----14b15==(14)r-----|
|------------13-----||------------------------|
|-------------------||------------------------|
|-------------------||------------------------|
|-------------------||------------------------|


             ~~~~                        ~~~~~~~~~~~~~~
  E  a      +Q.    +Q     E      +E      Q.    E  +Q    Q
|-------------------------------------|---------------------|
|---15b17==(15)---(15)r--15b16==(15)r-|-12----12-(12)\------|
|-------------------------------------|---------------------|
|-------------------------------------|---------------------|
|-------------------------------------|---------------------|
|-------------------------------------|---------------------|


                                             ~~~~~~~
  Q  E  E  E  E  E      E        Q        E  E  +Q    a      +E   E
|---------10-12-12pb13-12pb14-|-10b10.5--------------10b11==(10)r---|
|------12---------------------|----------12-12-(12)-----------------|
|-----------------------------|-------------------------------------|
|-----------------------------|-------------------------------------|
|-----------------------------|-------------------------------------|
|-----------------------------|-------------------------------------|


                                                  ~~~~~~~~
  Q.    e  a      +Q     a      +Q       S  S  E  Q   +E   E  E      +E
|-------------------------------------|------------------------------------|
|------12-15b17==(15)r--15b16==(15)r--|-15p12----12--(12)------------------|
|-------------------------------------|-------13----------13---------------|
|-------------------------------------|----------------------12b13==(12)r--|
|-------------------------------------|------------------------------------|
|-------------------------------------|------------------------------------|


                     ~
   Q   Q  E  E E E   Q  E E a     +E   E E E
|--------------7---|-9--7--------------------|
|----------------7-|------7------------7-----|
|-----------/8-----|--------9b10==(9)r---7---|
|------------------|-----------------------9-|
|-14\--------------|-------------------------|
|------------------|-------------------------|


                                    ~~~~~~~~~~~~~~~~~
  a     +E   E E E  Q        E      E   +Q   Q  Q  E E
|--------------7---10b10.5--10b10.5-7-|-(7)--7--7--7----|
|------------7---7--------------------|-----------------|
|-9b11==(9)r--------------------------|-----------------|
|-------------------------------------|-----------------|
|-------------------------------------|-----------------|
|-------------------------------------|-----------------|


                                         ~~
  E  a      +Q.        +Q     Q          H     E      +S   S Q
|---12b13==(12)b14====(12)r--10b10.5--|-------10b11==(10)r------|
|-------------------------------------|-12----------------------|
|-------------------------------------|-------------------------|
|-------------------------------------|-------------------------|
|-------------------------------------|-------------------------|
|-------------------------------------|-------------------------|


                                        ~~~
  E  e  E     +E   +Q    E      +E      Q.    E  H     E  a      +Q.     E      +E    E  E
|------------------------------------|---------------|-------------------------------12-14---|
|---12-15b19=(15)-(15)r-15b16==(15)r-|-12------------|---15b18==(15)r---15b16==(15)r---------|
|------------------------------------|-------13\-----|---------------------------------------|
|------------------------------------|---------------|---------------------------------------|
|------------------------------------|---------------|---------------------------------------|
|------------------------------------|---------------|---------------------------------------|


            ~~~~~~                                         ~~~~~~
   Q        Q   Q   E      E   E  a      +Q.     E      E  E  E
|----------------------------|---10b13==(10)r---10b10.5-7-10-10-|
|-15b15.5--12--12--15b15.5---|----------------------------------|
|----------------------------|----------------------------------|
|----------------------------|----------------------------------|
|----------------------------|----------------------------------|
|----------------------------|----------------------------------|


 ~~~~~~~~~~                   ~
           |-3--|
  H    +E  S  S S S S E       Q  S S E E  E  E      +E
|-7----(7)-7----------------|----------------------------|
|------------10p7---7-------|---------------15b17==(15)r=|
|-----------------9---7b7.5-|----7h8-----11--------------|
|---------------------------|-9--------------------------|
|---------------------------|----------------------------|
|---------------------------|----------------------------|


   +E   e  e  E      +E    E  E  a      +E      E      E      E      E      Q        Q
|-------------------------12-----------------|-----------------------------------------------|
|-(15)-12-12-15b16==(15)r----15-15b17==(15)r-|-15pb17-15pb17-15pb17-15pb17-15b15.5--15b15.5--|
|--------------------------------------------|-----------------------------------------------|
|--------------------------------------------|-----------------------------------------------|
|--------------------------------------------|-----------------------------------------------|
|--------------------------------------------|-----------------------------------------------|


            ~~~
   S  S  E  H.        E  e  e  e  e  e E  E
|-------------------|------------------------||
|-15p12----12-------|------19----------------||
|-------13----------|---21-19-21-19----------||
|-------------------|---21----21-19----------||
|-------------------|---------------19-x\----||
|-------------------|------------------------||


 Verse 3
                             ~~~~~~~~~~
  Wx4          H    Q    E   E     +H      +E   E Q
|------------|------------------|--------------------|
|------------|--------------12--|-(12)----(12)\------|
|------------|------------------|--------------------|
|------------|---------/12-(12)-|-(12)----(12)\------|
|------------|------------------|--------------------|
|------------|------------------|--------------------|


            ~~~~~~~~
  H    Q  E E   +Q   E  E      H
|-----------7-|-(7)----10b10.5------|
|-------------|------9--------------|
|---------7---|---------------------|
|-------------|---------------------|
|-------------|---------------------|
|-------------|---------------------|


  W          W          W          E  e  e  e  E  Q   E
|----------|----------|----------|-----------------------|
|----------|----------|----------|-----------------------|
|----------|----------|----------|---14-14-14-14-14\-----|
|----------|----------|----------|---12-12-12-12-12\-----|
|----------|----------|----------|-----------------------|
|----------|----------|----------|-----------------------|


                                             ~~~~~~~~~
  H    Q   a      +E   +E     Q        E  e  Q   +Q
|---------12b14==(12)r(12)-|-10b10.5-------------------|
|--------------------------|----------12----12--(12)\--|
|--------------------------|-------------11------------|
|--------------------------|---------------------------|
|--------------------------|---------------------------|
|--------------------------|---------------------------|


                                   ~~~~~~
  H    E  a      +Q.       S S e E E +H
|--------10b12==(10)r---|-10p7---7-7-(7)----|
|-----------------------|------9------------|
|-----------------------|-------------------|
|-----------------------|-------------------|
|-----------------------|-------------------|
|-----------------------|-------------------|


                                       ~
  +Q   Q  E  E      +Q       Q       E E +Q   Q
|-(7)-------10b13==(10)r--|-10b10.5--7-7-(7)-----|
|-------------------------|----------------------|
|-------------------------|----------------------|
|-------------------------|----------------------|
|-------------------------|----------------------|
|-------------------------|----------------------|


  H    E E E E   a     +Q.    a     +E  +E   E Q
|------------7-|-9b10==(9)r---9b10==(9)-(9)r-------|
|--------7-9---|-----------------------------------|
|--------------|-----------------------------------|
|--------------|-----------------------------------|
|--------------|-----------------------------------|
|--------------|-----------------------------------|


  W          W
|----------|----------|


  E  a      +E   +E  E E a     +E  +E  E   Q   E E +H
|---10b12==(10)r(10)-7-------------------|-------2-(2)----||
|----------------------7-----------------|-------2-(2)----||
|------------------------9b11==(9)r(9)-7-|-------2-(2)----||
|----------------------------------------|-9\----1-(1)----||
|----------------------------------------|-------2-(2)----||
|----------------------------------------|----------------||


 Outro - Free Time
                                           ~~~~~~
  +W            a      +Q    +E   S  S  E  Q.
|-(2)--------:----------------------------------:
|-(2)--------:-15b17==(15)r=(15)-12----15-12----:
|-(2)--------:----------------------13----------:
|-(1)--------:----------------------------------:
|-(2)--------:----------------------------------:
|------------:----------------------------------:


 ~~~~~~
   +H.        Q          E  E Q  H
|---------------------:---------------*|
|-(12)------/15b15.5--:---------------*|
|---------------------:---------------*|
|---------------------:-16\-----------*|
|---------------------:---------------*|
|---------------------:---------------*|





Comments


Popular Gary Moore tabs & chords
The Stumble Bass Tabs
I Had A Dream Chords
Parisenne Walkways Chords
After The War Tabs
Empty Rooms 2 Tabs
Parisenne Walkways Tabs
Picture Of The Moon 1 Tabs
Since I Met You Baby Live Tabs
Still Got The Blues 4 Tabs
I Had A Dream Ukulele


Song lyrics



↑ Back to top | Tablatures and chords are parodies/interpretations of the original songs. You may use it for private study, scholarship, research or language learning purposes only
© 2014 AZChords.com Contact us | Privacy policy | DMCA | Add/correct tabs | Request tabs | Top 50 tabs