» » »

Gary Moore, Cold Hearted Tabs (ver.1)

Artists:  A B C D E F G H I J K L M N O P Q R S T U V W X Y Z # 

Cold Hearted Tabs (ver.1)

Gary Moore Tabs
 Rating:
4/5 (4 votes)
Cold Hearted lessons Tabs too difficult? Try these video lessons and learn fast
1
                Writer(s): Gary Moore

Intro

e-----------------|
B-----------------|
G-----2-------2-4-|
D-2-4-2-4-2-4-2-4-|
A-2-4-0-4-2-4-0-2-|
E-0-2---2-0-2-----|

e------------------------|
B------------------------|
G-----2-------2-4--4-2---|
D-2-4-2-4-2-4-2-4------4-|
A-2-4-0-4-2-4-0-2--------|
E-0-2---2-0-2------------|

e-----------------|
B-----------------|
G-----2-------2-4-|
D-2-4---4-2-4-2-4-|
A---------2-4-0-2-|
E---------0-2-----|

e------------------------|
B------------------------|
G-----2-------2-4--4-2---|
D-2-4-2-4-2-4-2-4------4-|
A-2-4-0-4-2-4-0-2--------|
E-0-2---2-0-2------------|


Verse

e-----------------|
B-----------------|
G-----2-------2-4-|
D-2-4-2-4-2-4-2-4-|
A-2-4-0-4-2-4-0-2-|
E-0-2---2-0-2-----|

e-------------------------|
B-------------------------|
G-----2-------2-4--4*-2*--|
D-2-4-2-4-2-4-2-4-------4-|
A-2-4-0-4-2-4-0-2---------|
E-0-2---2-0-2-------------|


e-----------------|
B-----------------|
G-----2-------2-4-|
D-2-4-2-4-2-4-2-4-|
A-2-4-0-4-2-4-0-2-|
E-0-2---2-0-2-----|

e-------------------|
B-------------------|
G-----2-------2-4-6-|
D-2-4-2-4-2-4-2-4-6-|
A-2-4-0-4-2-4-0-2-4-|
E-0-2---2-0-2-------|

Pre-Chorus

e-------------------------------------------------|
B-------------------------------------------------|
G-7-7-9-9-6-6-----------4---------4---------4-2---|
D-7-7-9-9-6-6-4---------2---------2-------4-----4-|
A-5-5-7-7-4-4-4-4-4-4-4-4-4-4-4-4-4---------------|
E-------------2---------------------2-2-x---------|

e-----------------------------------|
B---------------------------------8-|
G-7-7-9-9-6-6---------------------7-|
D-7-7-9-9-6-6-4-4-4-4-4-4-4-4-4/6-6-|
A-5-5-7-7-4-4-4-2-2-2-2-2-2-2-2/4-7-|
E-------------2---------------------|

Solo 1
                              (Gradual release)
e----------------------------------------------------------------|
B----------------------------------------------------------------|
G-----2-------2-4--4*-2*---4b*-4*-4*-4*-4*-4*-4*-4p2-4p2---------|
D-2-4-2-4-2-4-2-4-------4*-------------------------------4-2h4p2-|
A-2-4-0-4-2-4-0-2------------------------------------------------|
E-0-2---2-0-2----------------------------------------------------|

Verse

e-----------------|
B-----------------|
G-----2-------2-4-|
D-2-4-2-4-2-4-2-4-|
A-2-4-0-4-2-4-0-2-|
E-0-2---2-0-2-----|

e--------------------------|
B--------------------------|
G-----2-------2-4--4*-2*---|
D-2-4-2-4-2-4-2-4--------4-|
A-2-4-0-4-2-4-0-2----------|
E-0-2---2-0-2--------------|

e-----------------|
B-----------------|
G-----2-------2-4-|
D-2-4-2-4-2-4-2-4-|
A-2-4-0-4-2-4-0-2-|
E-0-2---2-0-2-----|

e--------------------------|
B--------------------------|
G-----2-------2-4-4*-2*-4*-|
D-2-4-2-4-2-4-2-4----------|
A-2-4-0-4-2-4-0-2----------|
E-0-2---2-0-2--------------|


e-------------------|
B-------------------|
G-----2-------2-4-6-|
D-2-4-2-4-2-4-2-4-6-|
A-2-4-0-4-2-4-0-2-4-|
E-0-2---2-0-2-------|

Pre-Chorus

e---------------------------------------------|
B-----------------------------------------17b-|
G-7-7-9-9-6-6-----------4---------4-----------|
D-7-7-9-9-6-6-4---------2---------2-----------|
A-5-5-7-7-4-4-4-4-4-4-4-4-4-4-4-4-4-----------|
E-------------2---------------------2-2-x-----|

e-----------------------------------|
B---------------------------------8-|
G-7-7-9-9-6-6---------------------7-|
D-7-7-9-9-6-6-4-4-4-4-4-4-4-4-4/6-6-|
A-5-5-7-7-4-4-4-2-2-2-2-2-2-2-2/4-7-|
E-------------2---------------------|

Chorus

e------------------|
B------------------|
G-----2-------2-4w-|
D-2-4-2-4-2-4-2----|
A-2-4-0-4-2-4-0----|
E-0-2---2-0-2------|

e---------------------------|
B---------------------------|
G-----2-------2-4--4*-2*----|
D-2-4-2-4-2-4-2-4--------4*-|
A-2-4-0-4-2-4-0-2-----------|
E-0-2---2-0-2---------------|

e-----------------|
B-----------------|
G-----2-------2-4-|
D-2-4-2-4-2-4-2-4-|
A-2-4-0-4-2-4-0-2-|
E-0-2---2-0-2-----|

e------------------|
B------------------|
G-----2-------2-4w-|
D-2-4-2-4-2-4-2----|
A-2-4-0-4-2-4-0----|
E-0-2---2-0-2------|

Solo 2

e--------------------------------|
B-------2-5----2*-5*-------------|
G-4b-4b-----4b-------2-----------|
D----------------------4-2-4-4p2-|
A--------------------------------|
E--------------------------------|

e-------------------------------------------------------------|
B-17b-17p14---------------14-17p14----14-17p14----14-17p14----|
G-----------16p14-16b-16b----------16----------16----------16-|
D-------------------------------------------------------------|
A-------------------------------------------------------------|
E-------------------------------------------------------------|

e-------------------------------------------------|
B-14-17p14----14----------------------------------|
G----------16----16p14-16p14-16p14----14----------|
D----------------------------------16----16-14-16-|
A-------------------------------------------------|
E-------------------------------------------------|

e-17b-17-17p16----14---------------------------------------------------|
B--------------17----17-14--17-14----14-------17-14----14--------------|
G---------------------------------16----16-14-------16----14-16--------|
D---------------------------------------------------------------16-14w-|
A----------------------------------------------------------------------|
E----------------------------------------------------------------------|

Pre-Chorus

e--------------------------------------------|
B--------------------------------------------|
G-7-7-9-9-6-6-----------4---------4----------|
D-7-7-9-9-6-6-4---------2---------2----------|
A-5-5-7-7-4-4-4-4-4-4-4-4-4-4-4-4-4-------2w-|
E-------------2---------------------2-2-x----|

e-----------------------------------|
B---------------------------------8-|
G-7-7-9-9-6-6---------------------7-|
D-7-7-9-9-6-6-4-4-4-4-4-4-4-4-4/6-6-|
A-5-5-7-7-4-4-4-2-2-2-2-2-2-2-2/4-7-|
E-------------2---------------------|

Chorus

e-----------------|
B-----------------|
G-----2-------2-4-|
D-2-4-2-4-2-4-2-4-|
A-2-4-0-4-2-4-0-2-|
E-0-2---2-0-2-----|

e-----------------|
B-----------------|
G-----2-------2-4-|
D-2-4-2-4-2-4-2-4-|
A-2-4-0-4-2-4-0-2-|
E-0-2---2-0-2-----|

e---------------------|
B---------------------|
G-----2-------2-2*-4b-|
D-2-4-2-4-2-4-2-------|
A-2-4-0-4-2-4-0-------|
E-0-2---2-0-2---------|

e-----------------|
B-----------------|
G-----2-------2-4-|
D-2-4-2-4-2-4-2-4-|
A-2-4-0-4-2-4-0-2-|
E-0-2---2-0-2-----|

Outro Solo NOTE: I've only been able to work out the beginning of this part so I 
apologise but if I can work out the rest then I'll put it on here.

e----2------------------------------------------------|
B-5----5p2--2-5p2---2-5p2-----------------------------|
G-7b-------4------4-------4-2-4p4-4p2--2----------2---|
D-------------------------------------4--4-2-4p2w---4-|
A-----------------------------------------------------|
E-----------------------------------------------------|

e-----------------------------------------------------------------------|
B-5--7--12--------------------------------------------------------------|
G-7b-9b-14b-14-14-16-16p14----14----------------------------------------|
D--------------------------16----16-14-16p14----14----------------------|
A--------------------------------------------16----16-14-16p14/12-14-12-|
E-----------------------------------------------------------------------|

e--------------------|
B--------------------|
G--------------------|
D--------------------|
A----12----------12w-|
E-14----14-12-14-----|

After that as I said I haven't been able to work out but I hope that this tab will give 
you a general idea on how to play the song. Enjoy :)
            
Submit corrections

comments powered by Disqus
↑ Back to top | Gary Moore Tabs for Cold Hearted. Lyrics for acoustic guitar and electric guitar. 1 Tablatures and chords are parodies/interpretations of the original songs. You may use it for private study, scholarship, research or language learning purposes only