>
 >
Cold Day In Hell

Cold Day In Hell Guitar Tabs

Gary Moore - Cold Day In Hell chords, tabs, tablatures, lyrics

Guitar lessons | Add/correct | Request | Top 50 tabs Artists:  A B C D E F G H I J K L M N O P Q R S T U V W X Y Z 0-9

Cold Day In Hell Guitar Tabs – Gary Moore

CD, Sheet music, Poster

Do you like Cold Day In Hell? Share with your friends now
Tabs
Artist ~ Gary Moore
Song ~ Cold day in hell

Gtr One (E A D G B E) - 'Gary Moore - Lead  w/dist'
Gtr Two (E A D G B E) - 'Gary Moore - Rhythm clean electric'
Gtr Three (E A D G B E) - 'Gary Moore - Rhythm w/overdrive'

Intro
  Q=100
 4/4
  Gtr I
  Q   Q  Q    Q      Q   a      +Q     a      +Q     a      +Q
|------------------|----14b15==(14)r--14b15==(14)r--14b15==(14)r--|
|------------------|----------------------------------------------|
|-9\---------------|----------------------------------------------|
|-9\---------------|----------------------------------------------|
|-----------(12)\--|----------------------------------------------|
|-9\---------------|----------------------------------------------|


      ~~~
   S  E.  +Q    E      +E   Q
|-12-----------12b14==(12)r-----|
|----14--(14)-------------------|
|-------------------------------|
|-------------------------------|
|-------------------------------|
|-------------------------------|


   |-3-|
   S S S  a      +Q.    S S  a      +E    S S  e
|-----------------------9------------------------|
|------9-12b14==(12)r-----9----------------------|
|----9----------------------11b13==(11)r-11p9----|
|-11------------------------------------------11-|
|------------------------------------------------|
|------------------------------------------------|


        ~~~~~~~~~~~~~
  E  S  S  +Q    +Q    +S  E.   Q   a      +Q     a      +Q     a      +Q
|-----------------------------|----14b15==(14)r--14b15==(14)r--14b15==(14)r--|
|-----------------------------|----------------------------------------------|
|-9---------------------------|----------------------------------------------|
|---11-11-(11)--(11)--(11)----|----------------------------------------------|
|-----------------------------|----------------------------------------------|
|-----------------------------|----------------------------------------------|


      ~~~~~~~~~~~~~~
                         |----3-----|   |-3--|          |--3---|  |-3--|
   a  H.       +S   E.   E  E      +E   E  E E  a      +E    E E  E  E E
|-12h14-------(14)\----|----------------9--9-9---------------------------|
|----------------------|---12b14==(12)r-9-12-9---------------------------|
|----------------------|-----------------------11b13==(11)r-11-9-11----9-|
|----------------------|--------------------------------------------11---|
|----------------------|-------------------------------------------------|
|----------------------|-------------------------------------------------|


      ~~~~~~~
   |3-|
   E  Q  +Q    +Q.    E
|-----------------------||
|-----------------------||
|-----------------------||
|-11--------------------||
|----11-(11)--(11)\-----||
|-----------------------||


 Verse
  Gtr II
|-Rhy Fig 1
     C#m7
  Q  S S S S S E. Q     Q  S S S S S E. Q    Q  S S S S S E.       Q
     | | | | |             | | | | |            | | | | |
     / / / / /             / / / / /            / / / / /

  Gtr I
  H          Q    Q     W                    H          E     S  S e  e
|---------------------|--------------------|----------------------------|
|-----------------9\--|--------------------|----------------------------|
|-----------------9\--|--------------------|-----------------------9-11-|
|-----------------9\--|--------------------|-----------------11-11------|
|---------------------|--------------------|----------------------------|
|---------------------|--------------------|----------------------------|


               C#m7   end Rhy Fig 1-|
   Q           S S  S S  S E. Q
               | |  | |  |
               / /  / /  /

                         ~~      ~~~
   E      +E   E    E    Q    S  E.
|-----------------------------------|
|-----------------------------------|
|-11b13==(11)r-9---11---------9-----|
|-----------------------11------11--|
|-----------------------------------|
|-----------------------------------|


w/Rhy Fig 1
   +E   E Q       H         Q   Q       H
|-------------------------|-9\------------------|
|-------------------------|-9\------------------|
|-------------------------|---------------------|
|-(11)\-------------------|---------------------|
|-------------------------|---------------------|
|-------------------------|---------------------|



              ~~~~
  Q   a      +Q         +Q      S  S  e
|-------------------------------9-------|
|----12b14==(12)-------(12)r------12----|
|------------------------------------11-|
|---------------------------------------|
|---------------------------------------|
|---------------------------------------|


                                      Pre-Chorus
                                    Gtr III
             ~~~                       PM------------|
  Q       S  E.      +Q.       +E      E E E E E E E E
|-----------------------------------||-----------------|
|-----------------------------------||-----------------|
|-9b9.5-----------------------------||-----------------|
|--------11-11------(11)------(11)\-||-----------------|
|-----------------------------------||-2-2-2-2-2-2-2-2-|
|-----------------------------------||-0-0-0-0-0-0-0-0-|
                                     |-Rhy Fig 2

  PM--------|       PM|   PM--|       PM|   PM--|
  E E E E E E E E   E E E E E E E E   E E E E E E E E
|-----------------|-----------------|-----------------||
|-----------------|-----------------|-----------------||
|-----------------|-----------------|-----------------||
|-----------------|-------------6---|-----------------||
|-4-4-4-4-4-4-4---|-6-6-6-6-6-6-6---|-4-4-4-4-4-4-4---||
|-2-2-2-2-2-2-2-0-|-4-4-4-4-4-4-4-0-|-2-2-2-2-2-2-2-0-||
                                        end Rhy Fig 2-|

 Chorus
                                G
       PM|   PM------|   PM~
  Q  E E E E E E   E E E E H
|----0-----0-----|--------------|
|----0-----0-----|--------------|
|----------------|---------6----|
|----2-----2-----|---------5----|
|----------------|-4-4-4---0----|
|-0----0-0---0-0-|-2-2-2-0------|


 tr I
                                                                        ~~
                   |-----3------|   |----------3----------|     |-3--|
  E  E      +Q     E E  a      +E   E  a      +E   a     +E     E  E E  H     +Q
|---12b14==(12)r--12-9----------------------------------------|----------------------||
|----------------------12b13==(12)r-9-------------------------|----------------------||
|-------------------------------------11b12==(11)r-9b11==(9)r-|-9--------------------||
|-------------------------------------------------------------|---11-9---------------||
|-------------------------------------------------------------|--------11----(11)\---||
|-------------------------------------------------------------|----------------------||


 Verse
w/Rhy Fig 1 x2
                      ~~~
  H          Q     S  E.     Q    Q       H
|-----------------12-----|------------------------|
|--------------------14--|-(14)\------------------|
|------------------------|-(13)\------------------|
|------------------------|------------------------|
|------------------------|------------------------|
|------------------------|------------------------|



  E  S  S e    e    a      +Q       a      +Q
|-------------------------------------------------|
|-------------------------------------------------|
|---------9---11---11b12==(11)r----11b13==(11)r---|
|---11-11-----------------------------------------|
|-------------------------------------------------|
|-------------------------------------------------|


                              ~~
   a      +E   S  S E    E    Q     Q
|---------------------------------------|
|---------------------------------------|
|-11b13==(11)r-9----9---11--------------|
|----------------11----------11----11\--|
|---------------------------------------|
|---------------------------------------|


  H          Q    Q     W
|---------------------|--------------------|
|-----------------9\--|--------------------|
|-----------------9\--|--------------------|
|-----------------9\--|--------------------|
|---------------------|--------------------|
|---------------------|--------------------|


                             ~~
  Q   Q       E        +E    Q
|-------------------------------|
|-------------------------------|
|----11-------9b10=====(9)r-----|
|---------------------------11--|
|-------------------------------|
|-------------------------------|


                                      Pre-Chorus
                                     |-w/Rhy Fig 2
     ~~~~~~                               ~~~~~~~~~~~
  S  E.  Q       E        +S   S Q      E Q.     +H
|-----------------------------------||----------------------|
|-----------------------------------||----9------(9)--------|
|-9--------------9b10=====(9)r------||----------------------|
|---11--11--------------------------||-/9-------------------|
|-----------------------------------||----------------------|
|-----------------------------------||----------------------|
                                     |-Riff A


     ~~~~~~~~~~~            ~~~~~~~~~~~           ~~~~~~~~~~~
   E Q.     +H            E Q.     +H           E Q.     +H
|---------------------|----------------------|---------------------||
|----7------(7)-------|-----9------(9)-------|----7------(7)-------||
|---------------------|----------------------|---------------------||
|-/8------------------|-/10------------------|-/8------------------||
|---------------------|----------------------|---------------------||
|---------------------|----------------------|---------------------||
                                                        end Riff A-|


 Chorus
  Gtr III
       PM|   PM------|   PM~
  Q  E E E E E E   E E E E H
|----0-----0-----|--------------|
|----0-----0-----|--------------|
|----------------|---------6----|
|----2-----2-----|---------5----|
|----------------|-4-4-4---0----|
|-0----0-0---0-0-|-2-2-2-0------|
|-Rhy Fig 3       end Rhy Fig 3-|

 Gtr I
                   |-3--|          |------3-------|
  E  E      +Q     E E  E  a      +E   a     +E   E
|---12b14==(12)r--12-9------------------------------||
|----------------------12---------------------------||
|-------------------------11b12==(11)r-9b11==(9)r-9-||
|---------------------------------------------------||
|---------------------------------------------------||
|---------------------------------------------------||


                              Bridge
                            Gtr III
      ~~~~~~~~~~~~~~           PM|                   PM|
   S  E.  +Q    +Q.    +E      E E a  Q   S E. E E   E E a  Q   S E. E E
|---------------------------||---------------------|---------------------|
|---------------------------||---------------------|---------------------|
|-11------------------------||-----9s11--\9----x-x-|-----9s11--\9----x---|
|----11--(11)--(11)---(11)\-||-----9s11--\9----x-x-|-----9s11--\9----x---|
|---------------------------||-0-0-------------x-x-|-0-0-------------x---|
|---------------------------||---------------------|---------------------|


  PM|                 PM|                 PM|
  E E a  Q  E E E E   E E a  Q  E E E E   E E a  Q   S S E E E
|-------------------|-------------------|----------------------|
|-----9s11----------|-----9s11--x-------|----------------------|
|-----9s11--x---x---|-----9s11--x---x---|-----9s11--\9-----x---|
|-----9s11--x---x---|-----9s11--x---x-x-|-----9s11--\9-----x---|
|-----------x---x---|---------------x-x-|-0-0------------0-x-0-|
|-9-9---------------|-9-9---------9---x-|----------------------|


  PM                     PM--------|
  E E a  Q   S S E E E   E E E E E E Q     E E E E E E  S   E.
|----------------------|-----------------|---------------------||
|----------------------|-----------------|---7---7---7---------||
|---x-9s11--\9-----x---|-6---6---6---6\--|---6---6---6---------||
|---x-9s11--\9-----x---|-5---5---5---5\--|---5---5---5---------||
|-0-x------------0-x-0-|-6-6-6-6-6-6-6\--|---0---0---0---------||
|----------------------|-----------------|-------------(9)s17--||


 Guitar Solo
w/Rhy Fig 1 x2
                                ~~~~~~~~~
   a      +Q.       E    S  E.  E   +E
|-14b16==(14)r=====14---12---------------|
|--------------------------14--14\-(14)/-|
|----------------------------------------|
|----------------------------------------|
|----------------------------------------|
|----------------------------------------|


  PM         ~~~~~
  E  E      +Q         S  S  S  a      +S    S S  S  S
|----------------------9-------------------------------|
|---12b14==(12)r---------12--9-------------------------|
|------------------------------11b12==(11)r-11-9-11----|
|---------------------------------------------------11-|
|------------------------------------------------------|
|-x----------------------------------------------------|


          ~~                                         PM-------------|
                       |-3--|
  Q       H            S  S S  E    +Q      Q        S S  S S S S S S
|--------------------------------|------------------------------------|
|--------------------------------|------------------------------------|
|-9b9.5----------------9---------|------------------------------------|
|--------11--------------11p9----|---------11\-------x--------------2-|
|-----------------------------11-|-(11)\--\11\----------------2-3-4---|
|--------------------------------|---------------------2--3-4---------|


            PM        PM|  ~
    |-3-|
  a S S S S S S S S S S S  Q   E
|---------------------------------|
|-----------------------5------5\-|
|-----------------6-6-6----6------|
|-4h5p4p2h4---4s6-----------------|
|-----------4---------------------|
|---------------------------------|


                        |----------3----------|   |-----3-----|
  S  +S    a      +E   +E      a      +E      E   E         E E  E       +E
|-------------------------------------------------------------------------------|
|---------10b12==(10)-(10)r-----------------------------------------------------|
|-2/-(2)\---------------------11b13==(11)r---11---9b9.5---------[9]b12==([9])r--|
|----------------------------------------------------------11-9-----------------|
|-------------------------------------------------------------------------------|
|-------------------------------------------------------------------------------|


     ~~~
                   |-----3------| |-----3-----|
  S  E.  S  E.     E         E  E E  E a     +E
|-------------------------------------------------|
|-------------------------------------------------|
|-9-----------------------------------------------|
|---11--11s19\-----9b9.5--------------------------|
|---------------------------11-10-9----9b11==(9)r-|
|-----------------------------------12------------|


     ~~
   S E. +E    +E     E     e  e  e
|----------------------------12-14-|
|-------------------------14-------|
|----------------------------------|
|----------------------------------|
|----------------------------------|
|-12-9--(9)---(9)/-----------------|


           ~~~~~         ~~~~~    ~~~
   a      +Q     a      +Q     S  E.  +Q
|-14b16==(14)r--14b16==(14)r--12-----------|
|--------------------------------14--(14)--|
|------------------------------------------|
|------------------------------------------|
|------------------------------------------|
|------------------------------------------|


   E  E  a      +E    a  E  E E E  E
|-12-14-14b16==(14)r-12h14-14-----10-|
|------------------------------------|
|-----------------------------0-0----|
|-----------------------------0-0----|
|------------------------------------|
|------------------------------------|


   a      +Q     E  a      +E   +E   +E   a      +E   +E
|-16b19==(16)r--16-16b19==(16)-(16)r(16)-16b19==(16)r(16)-|
|------------------16b19==(16)-(16)r(16)-16b19==(16)r(16)-|
|---------------------------------------------------------|
|---------------------------------------------------------|
|---------------------------------------------------------|
|---------------------------------------------------------|


                  |--3--|
   E       Q.     E  E  E  E  E
|-16b19===16r----16-14----14----|
|-16b19==(16)r---------17----14-|
|-------------------------------|
|-------------------------------|
|-------------------------------|
|-------------------------------|


   E  E       a      +E    a      +E    a      +E    a      +E    a      +E    a      +E
|------------------------------------------------------------------------------------------|
|-17-17b17.5-17b18==(17)r-17b19==(17)r-17b18==(17)r-17b19==(17)r-17b19==(17)r-17b19==(17)r-|
|------------------------------------------------------------------------------------------|
|------------------------------------------------------------------------------------------|
|------------------------------------------------------------------------------------------|
|------------------------------------------------------------------------------------------|


                                                           |---3---| |----3-----|
   a      +E    a      +E    a      +E    a      +E       +E    E  E E  E       E
|--------------------------------------------------------------------------------------|
|-17b20==(17)r-17b20==(17)r-17b20==(17)r-17b20==(17)b21==(17)r-17------17b17.5-17b17.5-|
|-----------------------------------------------------------------18-------------------|
|--------------------------------------------------------------------------------------|
|--------------------------------------------------------------------------------------|
|--------------------------------------------------------------------------------------|


   Q.    E   S S  S      +S   +S  S  E     E   E  H         +Q
|------------9-------------------------|---------16b19=====(16)r--||
|-------(5)/---9-----------------------|---------16b19=====(16)r--||
|-18\------------11b13==(11)r(11)p9----|--------------------------||
|-----------------------------------11-|-(11)\--------------------||
|--------------------------------------|--------------------------||
|--------------------------------------|--------------------------||


 Verse
w/Rhy Fig 1 x2
                        ~~~
  E  E Q       Q     S  E.    +E   E Q       Q    E  E
|-------------------12-----|---------------------------|
|----------------------14--|-(14)\---------------------|
|--------------------------|---------------------------|
|--------------------------|---------------------------|
|-x\-----------------------|----------------------x\---|
|-x\-----------------------|----------------------x\---|



  E S S e   e   a     +e      e e e
|------------------------------------|
|------------------------------------|
|------------------------------------|
|------------------------------------|
|-------7---9---9b11==(9)r------7-9--|
|---9-9-----------------------9------|


                         ~~~~~~~
  a     +e   e e   e   S E. +E  E
|---------------------------------|
|---------------------------------|
|---------------------------------|
|---------------------------------|
|-9b11==(9)r---7---9---7----------|
|------------9-----------9--(9)---|


                                                          ~~~~
  H          E     a      +E    a      +S   +S   S  S    +E   +E   Q       H
|-----------------17b19==(17)r-14b16==(14)r(14)-------|----------------------------|
|-----------------------------------------------17-14-|-(14)-(14)\-----------------|
|-----------------------------------------------------|----------------------------|
|-----------------------------------------------------|----------------------------|
|-----------------------------------------------------|----------------------------|
|-----------------------------------------------------|----------------------------|


                                           ~~~~~~
  H          E     a      +Q     +E     S  E.  Q        E         +S   S  Q
|-----------------14b16==(14)r==(14)-|-12--------------12b14=====(12)r--------||
|------------------------------------|----14--14------------------------------||
|------------------------------------|----------------------------------------||
|------------------------------------|-----------------------------------/x\--||
|------------------------------------|-----------------------------------/x\--||
|------------------------------------|----------------------------------------||


 Pre-Chorus
Rhy Fig 2 + Riff A


 Chorus
 Rhy Fig 3


  Gtr I
                    |-----3------|   |-------3-------|
  E  a      +Q.     E E  a      +E   E  a      +E    E
|---12b14==(12)r---12-9--------------------------------|
|-----------------------11b12==(11)r-9-----------------|
|--------------------------------------11b12==(11)r-11-|
|------------------------------------------------------|
|------------------------------------------------------|
|------------------------------------------------------|


                              Outro
                            Gtr III
        ~~~        ~~               PM|   PM|
  S  S  Q.   S  S  Q   +E      Q  E E E E E E
|---------------------------||----0-----0------|
|---------------------------||----0-----0------|
|-9----------9--------------||-----------------|
|---11-11------11-11--(11)\-||----2-----2------|
|---------------------------||-----------------|
|---------------------------||-0----0-0---0-0--|


                   Gtr I
  PM|     ~
  E E E E Q  +Q       E   a      +Q.    +Q     a      +Q
|------------------|----------------------------------------|
|------------------|----------------------------------------|
|---------6--(6)\--|-----11b13==(11)---(11)r--11b13==(11)r--|
|---------5--(5)\--|-(0)----------------------11b13==(11)r--|
|-4-4-4---0--------|----------------------------------------|
|-2-2-2-0----------|----------------------------------------|


      ~~~~~~     ~~~
   S  E.  Q   S  E. Q
|-12---------12---------|
|----14--14-----14------|
|-----------------------|
|-------------------x/--|
|-------------------x/--|
|-----------------------|


  Gtr III
                                       PM----|    PM----|
  e E e E e E e E    Q   +Q    Q  Q    S S S S Q  S S S S Q
|-----------------|------------------|-------------------------|
|-----------------|------------------|-------------------------|
|-----------------|-11--(11)\--------|---------9----------9----|
|-9-9-9-9-9-9-9-9-|-11--(11)\--6--9--|---------9----------9----|
|-7-7-7-7-7-7-7-7-|--9---(9)\--6--9--|-------------------------|
|-----------------|------------4--7--|-9-9-9-9----9-9-9-9------|


                       Gtr I
  PM----|                                                           ~~~
  S S S S E +S   S  S  S  S  S  e  e    a      +H      +E   +E   S  E.
|------------------------------12-14-|-14b16==(14)----(14)r(14)-12-----|
|------------------------14-14-------|-----------------------------14--|
|---------9-(9)s18s(6)---------------|---------------------------------|
|---------9--------------------------|---------------------------------|
|------------------------------------|---------------------------------|
|-9-9-9-9----------------------------|---------------------------------|


   ~~
   Q   S E. E  S  S  e  a      +E
|-----12------------12-14b16==(14)r-|
|-14----------14-14-----------------|
|-----------------------------------|
|-----------------------------------|
|-----------------------------------|
|-----------------------------------|


                                                ~
   E      +S   S Q  E  a      +S   S S S S  S   Q  Q  E  a      +Q     E
|-12b13==(12)r-----------------------9---9-12-|-9-------14b16==(14)r--12b12.5-|
|----------------------------------9---9------|-------------------------------|
|---------------------11b13==(11)r------------|-------------------------------|
|---------------------------------------------|-------------------------------|
|---------------------------------------------|-------------------------------|
|---------------------------------------------|-------------------------------|


                          ~~~
   a      +Q    Q  Q   S  E.
|-14b16==(14)r--------12-----|
|----------------------x-14--|
|----------------------------|
|----------------------------|
|----------------------------|
|----------------------------|


                                          ~~
   +Q    Q  E  S S  a      +S    S S  S   Q   Q  E S  S  S  S  S S
|--------------9------------------------|--------------------------|
|-(14)\-------12-9----------------------|--------------------------|
|------------------11b12==(11)r-11-9----|-9\---------------------9-|
|------------------------------------11-|---------------11----11---|
|---------------------------------------|----------9s11----11------|
|---------------------------------------|--------------------------|


   ~~~                      ~~~~~~~~~~~~~
   H     E  E    E    E     Q    Q    E.  +S     S S  S  S
|-[9]------[9]-[12]-[12]-|-[9]--[9]--[9]-------------------|
|------------------------|---------------------------------|
|----------------9----9--|---------------------/12---------|
|-11-------11------------|-11---11---11--(11)\-------11-11-|
|------------------------|---------------------------------|
|------------------------|---------------------------------|


                                     ~~~~
  S  S E  a      +S   S S S  a      +E   +E    E  S S
|-----------------------9-----------------------------|
|---------------------9---9-12b14==(12)-(12)r\--------|
|-9h11-9-11b13==(11)r--------------------------0----9-|
|----------------------------------------------0-11---|
|-----------------------------------------------------|
|-----------------------------------------------------|


   S  a      +S   S S  a      +S   S S  a      +S   S S  S S  a      +S   S S S
|-----------------9----------------9------------------9---------------------9---|
|-------------------9-12b14==(12)r---9--------------9---12-9--------------9---9-|
|-11-11b13==(11)r----------------------11b13==(11)r----------11b13==(11)r-------|
|-------------------------------------------------------------------------------|
|-------------------------------------------------------------------------------|
|-------------------------------------------------------------------------------|


                                                 |-----3------|    |--3---| |--3--|
   a      +S   S S  S S S  S  a      +S   +S  S  S S  a      +S   +S   S  S S  S  S
|--------------9-9-11-9-9-------------------------------------------------------------|
|-12b14==(12)r---9----9-9--9------------------9-12p9----------------------------------|
|-------------------------11-11b13==(11)r(11)--------11b13==(11)r(11)-12-11-9----11---|
|-----------------------------------------------------------------------------11------|
|-------------------------------------------------------------------------------------|
|-------------------------------------------------------------------------------------|


  ~                                       ~
  Q   Q   E S  S  S S  S S    a      +E   Q  +E     E     E S S  S      +S
|--------------------------|--------------------------------9----------------|
|--------------------------|----------------------------------9--------------|
|-9-------x--------------9-|-11b12==(11)r-9--(9)\-------/11-----12b14==(12)r-|
|----11\--x---------9-11---|----------------------/(9)\----------------------|
|-----------9-10-11--------|-------------------------------------------------|
|--------------------------|-------------------------------------------------|


  ~               ~
  Q   E      +E   Q   E      +E
|-9---------------9---------------|
|----12b14==(12)r----12b14==(12)r-|
|---------------------------------|
|---------------------------------|
|---------------------------------|
|---------------------------------|


  S  E.     +E   +E       +E       +E    S  S  E
|-9-12b14==(12)r(12)b15==(12)b16==(12)r-14----12-|
|------------------------------------------14----|
|------------------------------------------------|
|------------------------------------------------|
|------------------------------------------------|
|------------------------------------------------|


   ~~          ~~~~~~          ~~~~~~~~          ~~~
   Q   S       E.  Q   S       E.    Q   S       E.  Q.       +E
|-----12b12.5---------12b12.5-----|-----12b12.5-----12b15====(12)r-|
|-14----------14--14----------14--|-14----------14-----------------|
|---------------------------------|--------------------------------|
|---------------------------------|--------------------------------|
|---------------------------------|--------------------------------|
|---------------------------------|--------------------------------|


   ~~          ~~~~~~     ~~~
   Q   S       E.  Q   S  E.   E  a      +Q.     a      +S   +S   E       e  e
|-----12b12.5---------12-----|---16b19==(16)r---14b16==(14)r(14)-12b12.5-14----*|
|-14----------14--14-----14\-|----------------------------------------------14-*|
|----------------------------|-------------------------------------------------*|
|----------------------------|-x-----------------------------------------------*|
|----------------------------|-x-----------------------------------------------*|
|----------------------------|-------------------------------------------------*|


End.





Comments


Popular Gary Moore tabs & chords
Dont Let Me Be Misunderstood Chords
Crying In The Shadow Tabs
Devil In Her Heart Tabs
No Reason To Cry Tabs
Nuclear Attack 2 Tabs
Out In The Fields Intro Tabs
Still Got The Blues 2 Tabs
Supernatural Tabs
The Thrill Is Gone Tabs
Falling In Love With You Ukulele


Song lyrics



↑ Back to top | Tablatures and chords are parodies/interpretations of the original songs. You may use it for private study, scholarship, research or language learning purposes only
© 2014 AZChords.com Contact us | Privacy policy | DMCA | Add/correct tabs | Request tabs | Top 50 tabs