>
 >
City Of Gold

City Of Gold Guitar Tabs

Gary Moore - City Of Gold chords, tabs, tablatures, lyrics

Guitar lessons | Add/correct | Request | Top 50 tabs Artists:  A B C D E F G H I J K L M N O P Q R S T U V W X Y Z 0-9

City Of Gold Guitar Tabs – Gary Moore

CD, Sheet music, Poster

Do you like City Of Gold? Share with your friends now
Tabs
----------------------------------------------------------------------------------------------
                                      City of Gold – BBM
                                    (Moore/Bruce/Hanrahan)
                                 Around the Next Dream [1994]
----------------------------------------------------------------------------------------------



This is another Bruce/Baker/Moore number which is highly reminiscent of a classic Cream 
performance. In this case, ‘Crossroads’ is the track in question. It’s a standard 12-bar 
blues in the key of A and it is so similar to the Cream track that the lyrics and guitar 
solos could easily be interchanged. The song features some typically muscular guitar work 

Tuning: standard


Intro


      A

e|---------------------------------------|-----------------------------------------|
B|---------------------------------------|-----------------------------------------|
G|------------------2--(2)---------------|----------------2--(2)--2----------------|
D|----------------------------5--2-------|---------------------------2--5--2-------|
A|----0----0----3b4p0--(0)----------3b4--|--0----0----3b4p0--(0)--------------3b4--|
E|---------------------------------------|-----------------------------------------|


      A

e|---------------------------------------|-----------------------------------------|
B|---------------------------------------|-----------------------------------------|
G|------------------2--(2)---------------|----------------2--(2)--2----------------|
D|----------------------------5--2-------|---------------------------2--5--2-------|
A|----0----0----3b4p0--(0)----------3b4--|--0----0----3b4p0--(0)--------------3b4--|
E|---------------------------------------|-----------------------------------------|


      A

e|---------------------------------------|-----------------------------------------|
B|---------------------------------------|-----------------------------------------|
G|------------------2--(2)---------------|----------------2--(2)--2----------------|
D|----------------------------5--2-------|---------------------------2--5--2-------|
A|----0----0----3b4p0--(0)----------3b4--|--0----0----3b4p0--(0)--------------3b4--|
E|---------------------------------------|-----------------------------------------|


      A

e|---------------------------------------|-----------------------------------------|
B|---------------------------------------|-----------------------------------------|
G|------------------2--(2)---------------|----------------2--(2)--2----------------|
D|----------------------------5--2-------|---------------------------2--5--2-------|
A|----0----0----3b4p0--(0)----------3b4--|--0----0----3b4p0--(0)--------------3b4--|
E|---------------------------------------|-----------------------------------------|

    Verse 1
      A5                                       D5

e|------------------------------------------|-------------------------------------------|
B|------------------------------------------|-------------------------------------------|
G|------------------------------------------|-------------------------------------------|
D|----2----2----4----2----2----2----4----5/-|-/7----7----9----7----7----7----9----------|
A|----0----0----0----0----0----0----0----3/-|-/5----5----5----5----5----5----5--0--3b4--|
E|------------------------------------------|-------------------------------------------|


      A                                     A

e|---------------------------------------|-----------------------------------------|
B|---------------------------------------|-----------------------------------------|
G|------------------2--(2)---------------|----------------2--(2)--2----------------|
D|----------------------------5--2-------|---------------------------2--5--2-------|
A|----0----0----3b4p0--(0)----------3b4--|--0----0----3b4p0--(0)--------------3b4--|
E|---------------------------------------|-----------------------------------------|


      D5                                       D7

e|------------------------------------------|--5------------------------5-----------------|
B|------------------------------------------|--7------------------------7-----------------|
G|------------------------------------------|--5------------------------5-----------------|
D|----7----7----9----7----7----7----9----7--|--7----7----9----7----7----7-----------------|
A|----5----5----5----5----5----5----5----5--|--5----5----5----5----5----5-----------------|
E|------------------------------------------|---------------------------------------------|


      A                                     A

e|---------------------------------------|-----------------------------------------|
B|---------------------------------------|-----------------------------------------|
G|------------------2--(2)---------------|----------------2--(2)--2----------------|
D|----------------------------5--2-------|---------------------------2--5--2-------|
A|----0----0----3b4p0--(0)----------3b4--|--0----0----3b4p0--(0)--------------3b4--|
E|---------------------------------------|-----------------------------------------|


      E5                                       D5                  D7

e|------------------------------------------|----------------------5----5---------------|
B|------------------------------------------|----------------------7----7---------------|
G|------------------------------------------|----------------------5----5---------------|
D|----9----9----11---9----9----9----11---5/-|-/7----7----9----7----7----7----7----------|
A|----7----7----7----7----7----7----7----3/-|-/5----5----5----5----5----5----5--0--3b4--|
E|------------------------------------------|-------------------------------------------|


      A                                     A

e|---------------------------------------|-----------------------------------------|
B|---------------------------------------|-----------------------------------------|
G|------------------2--(2)---------------|----------------2--(2)--2----------------|
D|----------------------------5--2-------|---------------------------2--5--2-------|
A|----0----0----3b4p0--(0)----------3b4--|--0----0----3b4p0--(0)--------------3b4--|
E|---------------------------------------|-----------------------------------------|

    Verse 2
      A5                                       D5

e|------------------------------------------|-------------------------------------------|
B|------------------------------------------|-------------------------------------------|
G|------------------------------------------|-------------------------------------------|
D|----2----2----4----2----2----2----4----5/-|-/7----7----9----7----7----7----9----------|
A|----0----0----0----0----0----0----0----3/-|-/5----5----5----5----5----5----5--0--3b4--|
E|------------------------------------------|-------------------------------------------|


      A                                     A

e|---------------------------------------|-----------------------------------------|
B|---------------------------------------|-----------------------------------------|
G|------------------2--(2)---------------|----------------2--(2)--2----------------|
D|----------------------------5--2-------|---------------------------2--5--2-------|
A|----0----0----3b4p0--(0)----------3b4--|--0----0----3b4p0--(0)--------------3b4--|
E|---------------------------------------|-----------------------------------------|


      D5                                       D7

e|------------------------------------------|--5------------------------5-----------------|
B|------------------------------------------|--7------------------------7-----------------|
G|------------------------------------------|--5------------------------5-----------------|
D|----7----7----9----7----7----7----9----7--|--7----7----9----7----7----7-----------------|
A|----5----5----5----5----5----5----5----5--|--5----5----5----5----5----5-----------------|
E|------------------------------------------|---------------------------------------------|


      A                                     A

e|---------------------------------------|-----------------------------------------|
B|---------------------------------------|-----------------------------------------|
G|------------------2--(2)---------------|----------------2--(2)--2----------------|
D|----------------------------5--2-------|---------------------------2--5--2-------|
A|----0----0----3b4p0--(0)----------3b4--|--0----0----3b4p0--(0)--------------3b4--|
E|---------------------------------------|-----------------------------------------|


      E5        E                              D5        D13       D7

e|------------------------------------------|----------------------5----5---------------|
B|------------------------------------------|----------------------7----7---------------|
G|------------------------------------------|----------------------5----5---------------|
D|----9----9----11---9----9----9----11---5/-|-/7----7----9----7----7----7----7----------|
A|----7----7----7----7----7----7----7----3/-|-/5----5----5----5----5----5----5--0--3b4--|
E|------------------------------------------|-------------------------------------------|


      A                                     A

e|---------------------------------------|----------------------------------------------|
B|---------------------------------------|----------------------------------------------|
G|------------------2--(2)---------------|----------------2--(2)--7b9--7--5-------------|
D|----------------------------5--2-------|-----------------------------------7--5-------|
A|----0----0----3b4p0--(0)----------3b4--|--0----0----3b4p0--(0)-------------------3b4--|
E|---------------------------------------|----------------------------------------------|

    Verse 3
      A5                                       D5

e|------------------------------------------|-------------------------------------------|
B|------------------------------------------|-------------------------------------------|
G|------------------------------------------|-------------------------------------------|
D|----2----2----4----2----2----2----4----5/-|-/7----7----9----7----7----7----9----------|
A|----0----0----0----0----0----0----0----3/-|-/5----5----5----5----5----5----5--0--3b4--|
E|------------------------------------------|-------------------------------------------|


      A                                     A

e|---------------------------------------|-----------------------------------------|
B|---------------------------------------|-----------------------------------------|
G|------------------2--(2)---------------|----------------2--(2)--2----------------|
D|----------------------------5--2-------|---------------------------2--5--2-------|
A|----0----0----3b4p0--(0)----------3b4--|--0----0----3b4p0--(0)--------------3b4--|
E|---------------------------------------|-----------------------------------------|


      D5                                       D7

e|------------------------------------------|--5------------------------5-----------------|
B|------------------------------------------|--7------------------------7-----------------|
G|------------------------------------------|--5------------------------5-----------------|
D|----7----7----9----7----7----7----9----7--|--7----7----9----7----7----7-----------------|
A|----5----5----5----5----5----5----5----5--|--5----5----5----5----5----5-----------------|
E|------------------------------------------|---------------------------------------------|


      A                                     A

e|---------------------------------------|-----------------------------------------|
B|---------------------------------------|-----------------------------------------|
G|------------------2--(2)---------------|----------------2--(2)--2----------------|
D|----------------------------5--2-------|---------------------------2--5--2-------|
A|----0----0----3b4p0--(0)----------3b4--|--0----0----3b4p0--(0)--------------3b4--|
E|---------------------------------------|-----------------------------------------|


      E5        E                              D5        D13       D7

e|------------------------------------------|----------------------5----5---------------|
B|------------------------------------------|----------------------7----7---------------|
G|------------------------------------------|----------------------5----5---------------|
D|----9----9----11---9----9----9----11---5/-|-/7----7----9----7----7----7----7----------|
A|----7----7----7----7----7----7----7----3/-|-/5----5----5----5----5----5----5--0--3b4--|
E|------------------------------------------|-------------------------------------------|


      A                                     E5

e|---------------------------------------|-----------------------------------------|
B|---------------------------------------|-----------------------------------------|
G|------------------2--(2)---------------|-----------------------------------------|
D|----------------------------5--2-------|-----------------------------------------|
A|----0----0----3b4p0--(0)----------3b4--|--2--------------------------------------|
E|---------------------------------------|--0--------------------------------------|

    Guitar solo
      A                                     D

e|-------10b12--8-------------8----------|------------5-------------------------|
B|----(0)----------10—--(10)-----10\5----|----8b10-------8--5-------------------|
G|----(0)--------------------------------|---------------------7b9--7--5--------|
D|---------------------------------------|--------------------------------7--5--|
A|---------------------------------------|--------------------------------------|
E|---------------------------------------|--------------------------------------|


      A

e|----------------------------------------------|
B|---------5---------------5--8--5--------------|
G|---------5-----7p5—-7b9-----------7b8r7p5-----|
D|----7-------7------------------------------7--|
A|----------------------------------------------|
E|----------------------------------------------|




e|--------------------------------------------|
B|--------------------------------------------|
G|----7-—5b6----------------------------2—-2--|
D|------------7--5-----------------2h4--------|
A|------------------6\5-—3b4------------------|
E|----------------------------5p0-------------|


      D

e|----------------------------------------------|-------------5-----5-------------------|
B|-------5b7r5--3h5p3---------------------------|-----8b10-------8--5-------------------|
G|----(0)--------------5b6--2h4p2----2----------|----------------------7b9--7--5--------|
D|----(0)-------------------------4-----4--(4)--|--0------------------------------7--5--|
A|----------------------------------------------|--0------------------------------------|
E|----------------------------------------------|---------------------------------------|


      A

e|-----------------5--8--5--7p5-------5--5------|
B|------------5h7--5-------------8b9-----5--8p--|
G|-------5b6------------------------------------|
D|----7-----------------------------------------|
A|----------------------------------------------|
E|----------------------------------------------|

                                                        hold bend
                                                     E

e|------------5----------------------5------------|------------------------------------|
B|----5-------5-------------------5-----8p5-------|-----------8------------------------|
G|-------7b9-----7b9r7p5-----5b6-------------7p5--|--7b9—(9)-----9r7p5-----------------|
D|------------------------7-----------------------|---------------------7p5------------|
A|------------------------------------------------|--------------------------7p5--3/9--|
E|------------------------------------------------|------------------------------------|


      D                                  A

e|------------------------------------|------------5----------------------------------|
B|------------------------------------|---------------8--5----------------------------|
G|------------2--4--4b5--4--2h4p2-----|--2p0--7b9-----------7b9--7p5--7p5-------------|
D|----0--2h4-----------------------4--|------------------------------------7--5-------|
A|----0-------------------------------|------------------------------------------7\5--|
E|------------------------------------|-----------------------------------------------|




e|------------------------------------------|---------------------------------------|
B|------------------------------------------|---------------------------------------|
G|----------------------------------14--14--|--16b18--16b18r16--14h16p14------14p0--|
D|-----------------2--(2)----14h16----------|-----------------------------16--------|
A|----3b4--0--------------------------------|---------------------------------------|
E|------------3b4--0--(0)-------------------|---------------------------------------|


      D                                             A

e|-----------------------------------------------|-------------------------------------|
B|----------17b20--r17--15h17p15-----------------|-------------17------17------17------|
G|-------(0)----------------------17b19--14------|--16b17---16b17---16b17---16b17--14--|
D|----0--(0)---------------------------------16--|-------------------------------------|
A|----0------------------------------------------|-------------------------------------|
E|-----------------------------------------------|-------------------------------------|




e|------------------------------------------------------|
B|----17--------17--------17--------17--------17--------|
G|----17-14-----17-14-----17-14-----17-14-----17-14-----|
D|----------16--------16--------16--------16--------16--|
A|------------------------------------------------------|
E|------------------------------------------------------|


      D

e|---------------------------------------------|
B|---------------------------------------14\5--|
G|----17b19--17--14h17p14------14----16--------|
D|-------------------------16------------------|
A|---------------------------------------------|
E|---------------------------------------------|




e|--------------------------------------------------|
B|------17b19----17--15h17p15-----------------------|
G|----0------------------------17b19--14h17p14------|
D|----0-----------------------------------------16--|
A|--------------------------------------------------|
E|--------------------------------------------------|


      A

e|------------------------17----------------------------------------|
B|--------------------17------20--17--------------------------------|
G|----------14/19b21------------------19b21--19p17--19--17----------|
D|----14\2--------------------------------------------------19--17--|
A|------------------------------------------------------------------|
E|------------------------------------------------------------------|


                                                        E

e|-----------------------19h20p19--17h19p17------17--|--20b22----20b22--20b22--20b22--|
B|---------------17--19----------------------19------|--------------------------------|
G|--------17h18--------------------------------------|--------------------------------|
D|----19---------------------------------------------|--------------------------------|
A|---------------------------------------------------|--------------------------------|
E|---------------------------------------------------|--------------------------------|


      D

e|----(22)------20b22--20b22r20--17h20p17---------|
B|----------(17)---------------------------20b21--|
G|----------(17)----------------------------------|
D|------------------------------------------------|
A|------------------------------------------------|
E|------------------------------------------------|


      A

e|----17------------17----19-17---------17----------------------|
B|-------17—20b21------17---------17-20----17---20p17-------17--|
D|----------------------------------------------------19b20-----|
G|--------------------------------------------------------------|
A|--------------------------------------------------------------|
E|--------------------------------------------------------------|




e|---------------------------------------------------|
B|---------------------------------------------------|
G|----19b21r19p17------19b21--17—(17)----(17)\5------|
D|-----------------19--------------------------------|
A|---------------------------------------------------|
E|---------------------------------------------------|

    Verse 4
      A5                                       D5

e|------------------------------------------|-------------------------------------------|
B|------------------------------------------|-------------------------------------------|
G|------------------------------------------|-------------------------------------------|
D|----2----2----4----2----2----2----4----5/-|-/7----7----9----7----7----7----9----------|
A|----0----0----0----0----0----0----0----3/-|-/5----5----5----5----5----5----5--0--3b4--|
E|------------------------------------------|-------------------------------------------|


      A                                     A

e|---------------------------------------|-----------------------------------------|
B|---------------------------------------|-----------------------------------------|
G|------------------2--(2)---------------|----------------2--(2)--2----------------|
D|----2----2------------------5--2-------|---------------------------2--5--2-------|
A|----0----0----3b4p0--(0)----------3b4--|--0----0----3b4p0--(0)--------------3b4--|
E|---------------------------------------|-----------------------------------------|


      D5

e|-------------------------------------------|----------------------------------------------|
B|-------------------------------------------|--7-\5----------------------------------------|
G|-------------------------------------------|----------------------------------------------|
D|----7----7----9----7----7----7----9-----7--|--7-\5-------9----7----7----7----7------------|
A|----5----5----5----5----5----5----5--5-----|--------5----5----5----5----5----5--5p0--3b4--|
E|-------------------------------------------|----------------------------------------------|


      A                                     A

e|---------------------------------------|-----------------------------------------|
B|---------------------------------------|-----------------------------------------|
G|------------------2--(2)---------------|----------------2--(2)--2----------------|
D|----------------------------5--2-------|---------------------------2--5--2-------|
A|----0----0----3b4p0--(0)----------3b4--|--0----0----3b4p0--(0)--------------3b4--|
E|---------------------------------------|-----------------------------------------|


      E7                                        D9

e|---------0--(0)--------0-----------0-------|---------------------------0------------------|
B|---------0--(0)-3-0--------0-3-(3)---------|----------------------------------------------|
G|---------1--(1)----------------------------|-------5---(5)------------------5--(5)--------|
D|-------------------------2-----------------|-----------------4----------------------------|
A|--------------------------------------7\3--|--5-------------------5------------------3b4--|
E|----0--------------------------------------|----------------------------------------------|


      A                                     E5

e|---------------------------------------|-----------------------------------------|
B|---------------------------------------|-----------------------------------------|
G|------------------2--(2)---------------|-----------------------------------------|
D|----------------------------5--2-------|--9--\7----------------------------------|
A|----0----0----3b4p0--(0)----------3b4--|--7--\5----------------------------------|
E|---------------------------------------|--0--------------------------------------|


      A

e|---------------------------------------|-----------------------------------------|
B|---------------------------------------|-----------------------------------------|
G|------------------2--(2)---------------|----------------2--(2)--2----------------|
D|----------------------------5--2-------|---------------------------2--5--2-------|
A|----0----0----3b4p0--(0)----------3b4--|--0----0----3b4p0--(0)--------------3b4--|
E|---------------------------------------|-----------------------------------------|


      A

e|-------------------------------------------|-----------------------------------------|
B|-------------------------------------------|-----------------------------------------|
G|------------------2--(2)--2----------------|----------------2--(2)--2----------------|
D|-----------------------------2--5--2-------|---------------------------2--5--2-------|
A|----0----0----3b4p0--(0)--------------3b4--|--0----0----3b4p0--(0)--------------3b4--|
E|-------------------------------------------|-----------------------------------------|


    Verse 5
      A5                                       D/F#                          G

e|------------------------------------------|----------------------------------------|
B|------------------------------------------|--3---------3---------3--------------0--|
G|----2----2----2----2----2----2----2----2--|--2---------2---------2--------------0--|
D|----2----2----4----2----4----2----4----4--|--0---------0---------0--------------0--|
A|----0----0----0----0----0----0----0----0--|----------------------------------------|
E|------------------------------------------|-------2---------2---------2----3-------|


      A                                     A

e|---------------------------------------|-----------------------------------------|
B|---------------------------------------|-----------------------------------------|
G|------------------2--(2)---------------|----------------2--(2)--2----------------|
D|----------------------------5--2-------|---------------------------2--5--2-------|
A|----0----0----3b4p0--(0)----------3b4--|--0----0----3b4p0--(0)--------------3b4--|
E|---------------------------------------|-----------------------------------------|


      D5

e|------------------------------------------|----------------------------------------|
B|------------------------------------------|----------------------------------------|
G|------------------------------------------|----------------------7----7------------|
D|----7----7----9----7----7----7----9----7--|--7----7----9----7----7----7----7-------|
A|----5----5----5----5----5----5----5----5--|--5----5----5----5----5----5----5----3--|
E|------------------------------------------|----------------------------------------|


      A                                     A

e|---------------------------------------|-----------------------------------------|
B|---------------------------------------|-----------------------------------------|
G|------------------2--(2)---------------|----------------2--(2)----0---(0)--------|
D|----------------------------5--2-------|-----------------------------------2--3--|
A|----0----0----3b4p0--(0)----------3b4--|--0----0----3b4p0--(0)-------------------|
E|---------------------------------------|-----------------------------------------|


      E7                                        D9

e|---------0--(0)--------0-----------0-------|------------------------0---------------------|
B|---------0--(0)-3-0--------0-3-(3)---------|----------------------------------------------|
G|---------1--(1)----------------------------|-------5--(5)--5-----------------5--(5)-------|
D|-------------------------2-----------------|-------------------4----------4---------------|
A|--------------------------------------7\3--|--3/5----------------------5-------------3b4--|
E|----0--------------------------------------|----------------------------------------------|


      A                                     A

e|---------------------------------------|-----------------------------------------------|
B|---------------------------------------|------------5--8--5----------------------------|
G|------------------2--(2)---------------|------7b9------------8---7--5------------------|
D|----------------------------5--2-------|-------------------------------7-5-------------|
A|----0----0----3b4p0--(0)----------3b4--|--0----------------------------------7--5---3--|
E|---------------------------------------|-----------------------------------------------|

    Verse 6
      A5                                       D

e|------------------------------------------|----------------------------------------|
B|------------------------------------------|----------------------------------------|
G|---------2--------2--------2-------2------|-------5-------5-------5---5---5--------|
D|---------0--------2--------2-------2------|-------7-------7-------7---7---7--------|
A|----0---------0--------0-------0-------3--|--5--------5-------5---------------3b4--|
E|------------------------------------------|----------------------------------------|


      A                                        A

e|------------------------------------------|----------------------------------------|
B|-----------------12b14-(14)-------(14)\5--|---------------12b14-(14)-------(14)\5--|
G|------------------------------------------|----------------------------------------|
D|------------------5/7--(7)---------(7)\2--|----------------5/7--(7)---------(7)\2--|
A|----0----0----3b4-------------------------|--0----0----3b4-------------------------|
E|------------------------------------------|----------------------------------------|


      D                                        D

e|------------------------------------------|-------------------------------------------------|
B|------------------------------------------|-------------------------------------------------|
G|---------7-------7---5---5-----7---7---7--|-------7--(7)--5---------5----7--(7)-------------|
D|--------------7-------------7------7---7--|-------7--(7)--5---------5----7--(7)-------------|
A|----5------------------------------5---5--|--5-----------------7------------------0----3b4--|
E|------------------------------------------|-------------------------------------------------|


      A                                     A

e|------------------------------------------|----------------------------------------|
B|-----------------12b14-(14)-------(14)\5--|---------------12b14-(14)-------(14)\5--|
G|------------------------------------------|----------------------------------------|
D|------------------5/7--(7)---------(7)\2--|----------------5/7--(7)---------(7)\2--|
A|----0----0----3b4-------------------------|--0----0----3b4-------------------------|
E|------------------------------------------|----------------------------------------|


      E7                                             D9

e|---------0--(0)----------0--------------0-------|----------------------------------------------|
B|---------0--(0)-----------------3--(3)----------|-------------------------5--------------------|
G|----------------1-------------------------------|-------5--(5)--------------------5--(5)-------|
D|--------------------2--------2------------------|-------4--(4)--4------------------------------|
A|---------------------------------------------3/-|-/5-----------------5--------5-----------5\3--|
E|----0-------------------------------------------|----------------------------------------------|


      A                                                A7

e|---------5----5-----------------------|--------------5------|--(5)------------5\--0--|
B|---------5----5-—8p7------------------|--------------8------|--(8)------------8\--0--|
G|-------7b9-------------7p5------5--7--|--5h6---------6------|--(6)------------6\--0--|
D|----------------------------7---------|--------------5------|--(5)------------5\--0--|
A|----0---------------------------------|----------5---7------|--(7)-------------------|
E|--------------------------------------|-------0--3---5------|--(5)-------------------|




Intro


| A                | A                | A                | A                |

| A                | A                | A                | A                |



Verse 1


      A5          D5                        A        A
In my home of sand outside the city of gold
           D5                          D7               A
Where the wind’s so burning hot but my heart remains so cold
             E5
I need to buy myself some answers
       D5          D7             A        A
But the truth’s already been sold



Verse 2


           A5
Well I know how to use a razor
D5                             A        A
Carve my initials in the light
       D5
Yes, I know how to use a razor
D7                       A        A
Carve my initials in the light
E5        E                            D5
Sometimes in the depths of the dark, baby
D13   D7                A        A
I can make everything alright



Verse 3


      A5          D5                   A        A
In my home of sand outside the city of gold
         D5                           D7               A                  A
Well the wind’s so burning hot but my heart remains so cold, yes it does
    E5      E               D5     D13     D7         A
The shelter in your eyes, I dream about it when I die
    E
And thirst for it when I cry


Guitar solo

| A                | A                | D                | D                |

| A                | A                | E                | D                |

| A                | A                | D                | D                |

| A                | A                | D                | D                |

| A                | A                | E                | D                |

| A                | A                |



Verse 4


       A5      D5                   A        A
My home of sand outside the city of gold
         D5                          D5                A        A
Well the wind’s so burning hot but my heart remains so cold
    E7                      D9                         A
The shelter in your eyes, I dream about it when I die
    E5                       
And thirst for it when I cry



| A                | A                | A                | A                |



Verse 5


   A5          D/F#           G  A        A
My meal of salt on that table of stone
   D                             A        A
My meal of salt on that table of stone
            E7               D9                     A        A
Your feast’s so sweet while I thirst here all alone



Verse 6


       A5      D                    A        A
My home of sand outside the city of gold
           D                          D                A        A
Well the wind’s so burning hot but my heart remains so cold
             E7
I need to buy myself some aspirin
        D9
But the truth’s already been sold



| A                |         A7       | A7               |






| /  slide up
| \  slide down
| b  bend up
| r  release bend
| h  hammer-on
| p  pull-off
| ~  vibrato
| x  mute note


============================================================================  10 February 2012





Comments


Popular Gary Moore tabs & chords
Empty Rooms Chords
Empty Rooms Live Chords
Still Got The Blues Chords
Empty Rooms 2 Tabs
Nuclear Attack Tabs
Out In The Fields Tabs
Still Got The Blues 1 Tabs
Strangers In The Darkness Tabs
Walking By Myself 1 Tabs
Walking By Myself Ukulele


Song lyrics



↑ Back to top | Tablatures and chords are parodies/interpretations of the original songs. You may use it for private study, scholarship, research or language learning purposes only
© 2014 AZChords.com Contact us | Privacy policy | DMCA | Add/correct tabs | Request tabs | Top 50 tabs