» » »

Gary Moore, After The War Tabs (ver.1)

Artists:  A B C D E F G H I J K L M N O P Q R S T U V W X Y Z # 

After The War Tabs (ver.1)

Gary Moore Tabs
 Rating:
3.1/5 (7 votes)
After The War lessons Tabs too difficult? Try these video lessons and learn fast
                 Intro:
|------|--------|------|-------|
|------|--------|------|-------|
|------|--------|------|-------|
|-5----|--5-5---|-5----|-5-----|
|-5----|--5-5---|-5----|-5-----|
|-3----|--3-3---|-3----|-3-----|

|--------------------------|-------------------------------------------|
|--------------------------|-------------------------------------------|
|------5-5-x------5-5—-7b--|------5-5-5------12-12-12-12-12-12-12-12---|
|------5-5-3------5-3------|------5-5-3------12-12-12-12-12-12-12-12---|
|--------------------------|-------------------------------------------|
|-0-0---------0-0----------|-0-0--------0-0----------------------------|
 
 Verse
p.m.-------------------------------|
|-----------------|------------------|
|-----------------|------------------|
|-----------------|------------------|
|-----------------|------------------|
|-----------------|------------------|
|-5-5-5-5-5-5-5-5-|-5-5-5-5-5-5-5-5--|

|-----------------|
|-----------------|
|-----------------|
|-----------------|
|-----------------|
|-3-3-3-3-3-3-3-3-|

 Pre-Chorus
|-------|-------|-------|-----------------|----------|
|-------|-------|-------|-----------------|----------|
|-------|-------|-------|-----------------|----------|
|-5-----|-8-----|-10----|-7-7-7-7-7-7-7-7-|--8---10--|
|-5-----|-8-----|-10----|-7-7-7-7-7-7-7-7-|--8---10--|
|-3-----|-6-----|-8-----|-5-5-5-5-5-5-5-5-|--6---8---|

 Chorus
|----------|------------|----------|------------------|
|----------|------------|----------|------------------|
|----------|-----5-5-5--|----------|------------------|
|-7-7-7-7--|-----5-5-3--|-5-5-5-5--|-8-8-8-8-8-8-8-8--|
|-7-7-7-7--|------------|-5-5-5-5--|-8-8-8-8-8-8-8-8--|
|-5-5-5-5--|-0-0--------|-3-3-3-3--|-6-6-6-6-6-6-6-6--|

Bridge
|-----------------|-----------------|-----------------|
|-----------------|-----------------|-----------------|
|-----------------|-----------------|-----------------|
|-3-3-3-3-3-3-3-3-|-5-5-5-5-5-5-5-5-|-7-7-7-7-7-7-7-7-|
|-3-3-3-3-3-3-3-3-|-5-5-5-5-5-5-5-5-|-7-7-7-7-7-7-7-7-|
|-1-1-1-1-1-1-1-1-|-3-3-3-3-3-3-3-3-|-5-5-5-5-5-5-5-5-|

 




 Solo
|-----------------------------------------------------------------|
|-----------------------------------------------------------------|
|-----------------------------------------------------------------|
|-3p0h3p0h3p0h2p02hp0h2p0h3p0h3p0h5p0h5p0h5p0h3p0h3p0h3p0h5p0h5p0-|
|-----------------------------------------------------------------|
|-----------------------------------------------------------------|

|-----------------------------------------------------------------|
|-----------------------------------------------------------------|
|-----------------------------------------------------------------|
|-7p0h7p0h7p0h8p0h8p0h8p0h7p0h7p0h5p0h5p0h5p0h3p0h3p0h3p0h5p0h5p0-|
|-----------------------------------------------------------------|
|-----------------------------------------------------------------|

|--------------------------8-9-11-|
|--------------------6-7-9--------|
|-------------4-6-8---------------|
|-------2-4-5---------------------|
|-0-2-3---------------------------|
|---------------------------------|

|-----------------------------------------------------------------|
|-3p0h3p0h3p0h5p0h5p0h5p0h6p0h6p0h3p0h3p0h3p0h5p0h5p0h5p0h6p0h6p0-|
|-----------------------------------------------------------------|
|-----------------------------------------------------------------|
|-----------------------------------------------------------------|
|-----------------------------------------------------------------|

|--------------------------------------|
|-5p0h5p0h5p0h6p0h6p0h6p0h8p0h8p0—12b--|
|--------------------------------------|
|--------------------------------------|
|--------------------------------------|
|--------------------------------------|

I Add this some more stuff... 
            
Submit corrections

comments powered by Disqus
↑ Back to top | Gary Moore Tabs for After The War. Lyrics for acoustic guitar and electric guitar. Tablatures and chords are parodies/interpretations of the original songs. You may use it for private study, scholarship, research or language learning purposes only