>
 >
Mad World 13

Mad World 13 Guitar Tabs

Gary Jules - Mad World 13 chords, tabs, tablatures, lyrics

Guitar lessons | Add/correct | Request | Top 50 tabs Artists:  A B C D E F G H I J K L M N O P Q R S T U V W X Y Z 0-9

Mad World 13 Guitar Tabs – Gary Jules

CD, Sheet music, Poster

Do you like Mad World 13? Share with your friends now
Bass TabsBass Tabs v2ChordsChords v2Chords v10Chords v11Chords v12Chords v3Chords v4Chords v5Chords v6Chords v7Chords v8Chords v9TabsTabs v2Tabs v11Tabs v12Tabs v13Tabs v3Tabs v4Tabs v5Tabs v6Tabs v7Tabs v8Tabs v9Tabs v10UkuleleUkulele v2
Atrist: Gary Jules


E]-------------------------------------------------------|
B]-0-0-3-3-0-0-7-7--7-3-5-5--5--2--5-5-5-3-2-0-----------|
G]-------------------------------------------------------|    x4
D]-------------------------------------------------------|
A]-------------------------------------------------------|
E]-------------------------------------------------------|

 Em                 G             D               A  
All around me are familiar faces, worn out places, worn out faces,
 Em                           G            D            A
Bright and early for their daily races, going nowhere, going nowhere,
 Em                   G                  D            A 
The tears are filling up their glasses, no expression, no expression
 Em                     G                D           A
Hide my head I want to drown my sorrow, no tomorrow, no tomorrow,

E]-------------------------------------------------|
B]-0-0-3-3-7-7-9-5-5-5-9-9-5-5-0-------------------|
G]-------------------------------------------------|    x3
D]-------------------------------------------------|
A]-------------------------------------------------|
E]-------------------------------------------------|

 Em                   A                        Em
And I find it kind of funny, I find it kind of sad,
 Em                      A                             Em
These dreams in which I'm dying are the best I've ever had,
 Em                      A                         Em
And I find it hard to tell you, I find it hard to take,

E]-------------------------------------------------|
B]-0-0-3-3-7-7-9-5-5-5-9-9-5-5-3-0-3-0-------------|
G]-------------------------------------------------|
D]-------------------------------------------------|
A]-------------------------------------------------|
E]-------------------------------------------------|

 m                   A               Em        A     Em   A
When people run in circles its a very, very mad world, mad world,


E]-------------------------------------------------------|
B]-0-0-3-3-0-0-7-7--7-3-5-5--5--2--5-5-5-3-2-0-----------|
G]-------------------------------------------------------|    x4
D]-------------------------------------------------------|
A]-------------------------------------------------------|
E]-------------------------------------------------------|

 Em                       G                  D               A
Children waiting for the day they feel good, Happy Birhtday, Happy Birthday,
 Em                      G                   D               A
Made to feel the way that every child should, sit and listen, sit and listen,
 Em                      G             D             A
Went to school and I was very nervous, no one knew me, no one knew me,
 Em                      G             D                       A
Hello teacher tell me what's my lesson, look right through me, look right 

through me,


E]-------------------------------------------------|
B]-0-0-3-3-7-7-9-5-5-5-9-9-5-5-0-------------------|
G]-------------------------------------------------|    x3
D]-------------------------------------------------|
A]-------------------------------------------------|
E]-------------------------------------------------|

 Em                   A                        Em
And I find it kind of funny, I find it kind of sad,
 Em                      A                             Em
These dreams in which I'm dying are the best I've ever had,
 Em                      A                         Em
And I find it hard to tell you, I find it hard to take,

E]-------------------------------------------------|
B]-0-0-3-3-7-7-9-5-5-5-9-9-5-5-3-0-3-0-------------|
G]-------------------------------------------------|
D]-------------------------------------------------|
A]-------------------------------------------------|
E]-------------------------------------------------|

Em                   A               Em        A     Em   A
When people run in circles its a very, very mad world, mad world,



Thats it throughout the whole song, it can be played on any string. 
All comments and corrections are welcome.





Comments


Popular Gary Jules tabs & chords
Mad World Bass Tabs
Mad World 1 Bass Tabs
Mad World 1 Chords
Mad World 3 Chords
Mad World 4 Chords
Mad World 1 Tabs
Mad World 8 Tabs
Whiskey For Everybody Tabs
Broke Window Ukulele
Something Else Ukulele


Song lyrics



↑ Back to top | Tablatures and chords are parodies/interpretations of the original songs. You may use it for private study, scholarship, research or language learning purposes only
© 2014 AZChords.com Contact us | Privacy policy | DMCA | Add/correct tabs | Request tabs | Top 50 tabs