>
 >
Rockin Around The Christmas Tree Intro

Rockin Around The Christmas Tree Intro Guitar Tabs

Gary Hoey - Rockin Around The Christmas Tree Intro chords, tabs, tablatures, lyrics

Guitar lessons | Add/correct | Request | Top 50 tabs Artists:  A B C D E F G H I J K L M N O P Q R S T U V W X Y Z 0-9

Rockin Around The Christmas Tree Intro Guitar Tabs – Gary Hoey

CD, Sheet music, Poster

Do you like Rockin Around The Christmas Tree Intro? Share with your friends now
Tabs
Gary Hoey
Rockin' Around the Christmas Tree
Tuning: Standard

Intro:
|-5-6-7--7-----------------------5-6-7--7---------------|
|-5-6-7--7-9---------------------5-6-7--7-9-------------|
|--------------7-8---------7-8----------------7-8---7---|
|------------9-----9---7-9-----9------------9-----9-7---|
|--------------------9----------------------------------|
|-------------------------------------------------------|

|------------5-6-7--7-----------------------5-6-7--7----|
|-10-9-------5-6-7--7-9---------------------5-6-7--7-9--|
|------7-8----------------7-8---------7-8---------------|
|----------9------------9-----9---7-9-----9-------------|
|-------------------------------9-----------------------|
|-------------------------------------------------------|

|-----------10-9-7----------------7-7------7-7------7-7-|
|-----------10-9-7----------------7-7------7-7------7-7-|
|---7-8---7----------7-8-----9b11-----9b11-----9b11-----|
|-9-----9-7--------9-----9------------------------------|
|-------------------------------------------------------|
|-------------------------------------------------------|

|------7-7------7-7-------------------------------------|
|------7-7------7-7-------------------------------------|
|-9b11-----9b11------9b11rp7-9---7~-----------7-8-------|
|----------------------------9-9----9p7---7-9-----9-7-7-|
|---------------------------------------9---------------|
|-------------------------------------------------------|

|--------7---10-7-------7-------------------------------|
|------7---7------10b11---10-9-7------------------------|
|-9b11--------------------9--9-7-9b10rp7---9-7----------|
|----------------------------------------9-----9~-------|
|-------------------------------------------------------|
|-------------------------------------------------------|

|-10-9-7-------------------------|
|-10-9-7-------------------------|
|--------9---7---7---7-----------|
|----------9---9---9-------------|
|----------------------9~--------|
|--------------------------------|

Verse:
|-7-7-7--7--7\---7-7-7-7---7-7--------------------|
|-7-7-7--9--7\---7-7-7-7h9-7-7---11--9------------|
|--------------9------------------------9---------|
|-------------------------------------------9--8--|
|-------------------------------------------------|
|-------------------------------------------------|

|--------------------/9-9-9--9-----9-9-----9-9-9-9-----9-9----------------|
|----------------7---/9-9-9--9h11--9-9-----9-9-9-9h11--9-9----7---8---9---|
|----------6-6h8------------------------11------------------6---6---6-----|
|---4-6s=8----------------------------------------------------------------|
|-6-----------------------------------------------------------------------|
|-------------------------------------------------------------------------|

|--------10-9-7------9-9----|
|-9-7----10-9-7------9-9----|
|---------------7-8---------|
|---------------------------|
|---------------------------|
|---------------------------|

|-7-7-7--7--7\---7-7-7-7---7-7--------------------|
|-7-7-7--9--7\---7-7-7-7h9-7-7---11--9------------|
|--------------9------------------------9---------|
|-------------------------------------------9--8--|
|-------------------------------------------------|
|-------------------------------------------------|

|--------------------/9-9-9--9-----9-9-----9-9-9-9-----9-9----------------|
|----------------7---/9-9-9--9h11--9-9-----9-9-9-9h11--9-9----7---8---9---|
|----------6-6h8------------------------11------------------6---6---6-----|
|---4-6s=8----------------------------------------------------------------|
|-6-----------------------------------------------------------------------|
|-------------------------------------------------------------------------|

|-------------------------------------------------------------|
|-----9-8-7-------7-8-9--8--9--8--9--------9--11----------11--|
|-7-8-------9-8-9-----------------------9---------11-8-11-----|
|------------------------------------9------------------------|
|-------------------------------------------------------------|
|-------------------------------------------------------------|

|--------------------------------------------------------------|
|-12--11--12--11--12----11-12--14--12-11-----------------------|
|--------------------13------------------13-11-13-13s15-13-11--|
|--------------------------------------------------------------|
|--------------------------------------------------------------|
|--------------------------------------------------------------|


Verse 2:
|-7-7-7--7--7\---7-7-7-7---7-7--------------------|
|-7-7-7--9--7\---7-7-7-7h9-7-7---11--9------------|
|--------------9------------------------9---------|
|-------------------------------------------9--8--|
|-------------------------------------------------|
|-------------------------------------------------|

|--------------------/9-9-9--9-----9-9-----9-9-9-9-----9-9----------------|
|----------------7---/9-9-9--9h11--9-9-----9-9-9-9h11--9-9----7---8---9---|
|----------6-6h8------------------------11------------------6---6---6-----|
|---4-6s=8----------------------------------------------------------------|
|-6-----------------------------------------------------------------------|
|-------------------------------------------------------------------------|

|--------10-9-7------9-9----|
|-9-7----10-9-7------9-9----|
|---------------7-8---------|
|---------------------------|
|---------------------------|
|---------------------------|

|-7-7-7--7--7\---7-7-7-7---7-7--------------------|
|-7-7-7--9--7\---7-7-7-7h9-7-7---11--9------------|
|--------------9------------------------9---------|
|-------------------------------------------9--8--|
|-------------------------------------------------|
|-------------------------------------------------|

|------------------------------|
|---10p9p7---------------------|
|----------10p9p7--------------|
|-----------------9p7----------|
|---------------------9p7------|
|------------------------------|

|-/9-9-9--9-----9-9-----9-9-9-9-----9-9-------------------|
|-/9-9-9--9h11--9-9-----9-9-9-9h11--9-9----7---8---9------|
|--------------------11------------------6---6---6----9-8-|
|---------------------------------------------------------|
|---------------------------------------------------------|
|---------------------------------------------------------|

|-10-10p9p7----7---------------------|
|-----------10---10p9p7----7-9p7-----|
|-----------------------10-------9---|
|------------------------------------|
|------------------------------------|
|------------------------------------|

Verse 3:
|-7-7-7--7--7\---7-7-7-7---7-7--------------------|
|-7-7-7--9--7\---7-7-7-7h9-7-7---11--9------------|
|--------------9------------------------9---------|
|-------------------------------------------9--8--|
|-------------------------------------------------|
|-------------------------------------------------|

|------------------------------|
|---10p9p7---------------------|
|----------10p9p7--------------|
|-----------------9p7----------|
|---------------------9p7------|
|------------------------------|

|-/9-9-9--9-----9-9-----9-9-9-9-----9-9-------------------|
|-/9-9-9--9h11--9-9-----9-9-9-9h11--9-9----7---8---9------|
|--------------------11------------------6---6---6----9-8-|
|---------------------------------------------------------|
|---------------------------------------------------------|
|---------------------------------------------------------|

|-11-10-9---------7----|
|-------------7-9-7----|
|---------7h8----------|
|----------------------|
|----------------------|
|----------------------|

Guitar Solo: (1:36)
|------7-7------7-7------7-7------7-7------7-7----------|
|------7-7------7-7------7-7------7-7------7-7----------|
|-9b11-----9b11-----9b11-----9b11-----9b11-----9b11rp7--|
|-------------------------------------------------------|
|-------------------------------------------------------|
|-------------------------------------------------------|

|---------------------------------7-7------7-7------7-7------7-7------7-7-|
|---------------------------------7-7------7-7------7-7------7-7------7-7-|
|-9---7~-----------7-8-------9b11-----9b11-----9b11-----9b11-----9b11-----|
|-9-9----9p7---7-9-----9--------------------------------------------------|
|------------9-----------7-9----------------------------------------------|
|-------------------------------------------------------------------------|

|------------------------------------------------|
|-17b=19=~~19=19=19=19=19=19~~--17-15------------|
|-------------------------------------16~-16~\---|
|------------------------------------------------|
|------------------------------------------------|
|------------------------------------------------|

|-10-9-7------7------9-----9-----9---------------------------------------|
|-10-9-7------7-9-7--9b10--9b10--9b10--7-----------11---9----------------|
|--------7=h8----------------------------9-7----------------/11-10--9--8-|
|--------------------------------------------9-7------------/13-12-11-10-|
|------------------------------------------------------------------------|
|------------------------------------------------------------------------|

|-----------------------------------------------9-9----9----9------------|
|-----------------------------------7--9-9-9b11---9b11-9b11-9b11rp7------|
|--7-6-4--3---------------------6-8----------------------------------8---|
|--9-8-6--4--------------4-6s=8------------------------------------------|
|-----------------4s=6-6-------------------------------------------------|
|-------------2-2--------------------------------------------------------|

|--------------------------------------------------------------------7---|
|-10p9p7-------------------------------------------------------7h=9----9-|
|--------9p7p6-9p7p6-------------------------------------6-6h8-----------|
|--------------------9p7-9p7-----7h9p7------9-----4-6s=8-----------------|
|----------------------------9p7--------9p7-----6------------------------|
|------------------------------------------------------------------------|

|-14---------------------------------------------------14-14----14-14----14-|
|-14b=16-(x8)-12----12-12----12\-------7-9s11-14-14h16----14-16-------16----|
|----------------14-------14-------7h8--------------------------------------|
|---------------------------------------------------------------------------|
|---------------------------------------------------------------------------|
|---------------------------------------------------------------------------|

|-------14-------14-------14---14\-----18-17-16-------14-------14-------|
|-14h16----14h16----14h16-14---16\-----------------------16-14-14-------|
|-----------------------------------------------14h15-------15----13-11-|
|-----------------------------------------------------------------------|
|-----------------------------------------------------------------------|
|-----------------------------------------------------------------------|

|---------------14p11------------------------------------------|
|---------------------14p11-------14p11------------------------|
|----------11---------------13p11-------13p11-------13p11------|
|-13-11-13------------------------------------13p11-------13\--|
|--------------------------------------------------------------|
|--------------------------------------------------------------|

|---------------------------|
|---------------------------|
|-11------------------------|
|----11p9-11p9------9~------|
|--------------9h11---------|
|---------------------------|

Chorus: (2:12)
|------------------------------------------|
|-/9--8--9--8--9--------9--11----------11--|
|--------------------9---------11-8-11-----|
|-----------------9------------------------|
|------------------------------------------|
|------------------------------------------|

|--------------------------------------------------------------|
|-12--11--12--11--12----11-12--14--12-11-----------------------|
|--------------------13------------------13-11-13-13s15-13-11--|
|--------------------------------------------------------------|
|--------------------------------------------------------------|
|--------------------------------------------------------------|

Final Verse:
|-7-7-7--7--7\---7-7-7-7---7-7--------------------|
|-7-7-7--9--7\---7-7-7-7h9-7-7---11--9------------|
|--------------9------------------------9---------|
|-------------------------------------------9--8--|
|-------------------------------------------------|
|-------------------------------------------------|

|--------------------/9-9-9--9-----9-9-----9-9-9-9-----9-9----9-9-9-9-9--9-9-|
|----------------7---/9-9-9--9h11--9-9-----9-9-9-9h11--9-9----9-9-9-9-9--9-9-|
|----------6-6h8------------------------11-----------------11----------------|
|---4-6s=8-------------------------------------------------------------------|
|-6--------------------------------------------------------------------------|
|----------------------------------------------------------------------------|

|----------------------x-10-9-7-----------------------|
|-/14~--14-14-14~-14---x-10-9-7-----------------------|
|-/15~--15-15-15~-15---x--------10-9-7---7-8----------|
|--------------------------------------9-----9-7h9~---|
|-----------------------------------------------------|
|-----------------------------------------------------|


Outro:
|----------------------------------|
|----------------------------------|
|----------------------------------|
|---7------------------------------|
|-9---9-8-7-5-7--5b5.5=------------|
|--------------------------7\------|





Comments


Popular Gary Hoey tabs & chords
Christmas Song Tabs
Coasting Tabs
Drive Tabs
Feliz Navidad Tabs
Hocus Pocus 1 Tabs
I Saw Mommy Kissing Santa Claus Tabs
Karma Climb Tabs
Lowrider Tabs
Rockin Around The Christmas Tree Tabs
Youre A Mean One Mr Grinch 1 Tabs


Song lyrics



↑ Back to top | Tablatures and chords are parodies/interpretations of the original songs. You may use it for private study, scholarship, research or language learning purposes only
© 2014 AZChords.com Contact us | Privacy policy | DMCA | Add/correct tabs | Request tabs | Top 50 tabs