>
 >
Peace Pipe

Peace Pipe Guitar Tabs

Gary Hoey - Peace Pipe chords, tabs, tablatures, lyrics

Guitar lessons | Add/correct | Request | Top 50 tabs Artists:  A B C D E F G H I J K L M N O P Q R S T U V W X Y Z 0-9

Peace Pipe Guitar Tabs – Gary Hoey

CD, Sheet music, Poster

Do you like Peace Pipe? Share with your friends now
Tabs
Gary Hoey, Peace Pipe.
  
#------------------------------------------------------------------------------##

                                   PEACE PIPE
                            As recorded by Gary Hoey
                         (From the 1996 Album BUG ALLEY)

Music by Gary Hoey
Arranged by Gary Hoey

         Dmaj7                 G#m               F#madd11                 E
      x x 0 2 2 x          4 6 6 4 4 4          2 4 4 2 0 x          0 2 2 1 0 0

           A                   C#m                  Bm                    D
      x 0 2 2 2 0          x 4 6 6 5 4          x 2 4 4 3 2          x x 0 2 3 2

          F#m                   G
      2 4 4 2 2 2          3 5 5 4 3 3

   Intro
    Q=92
    Dmaj7                      Dmaj7
   4/4
    Gtr I
||-----2--------|------------|----2--------|---------||
||o------2------|------------|------2------|--------o||
||---------2----|-(2)--------|--------2----|-(2)-----||
||--0-----------|------------|-0-----------|---------||
||o-------------|------------|-------------|--------o||
||--------------|------------|-------------|---------||


 Rhy. Fig. 1
  F#madd11                            E
  Gtr I
|-----------------------------------|--------------------------------------|
|-----------------0-(0)-------------|-----------------------0-(0)----------|
|-------2-(2)------------2--2--2--2-|----------1-(1)--------------1-1--1-1-|
|-----4-------4---------------------|--------2-------2---------------------|
|---4-----------4-------------------|------2------------2------------------|
|-2---------------------------------|--0-----------------------------------|
|
| Gtr II
|-----------------------------------|--------------------------------------|
|-----------------------------------|--------------------------------------|
|-----------------------------------|--------------------------------------|
|-2h4-------------------(4)---(4)---|-(4)\\-------------(4)\\--------------4-|
|-----------------------------------|--------------------------------------|
|-----------------------------------|--------------------------------------|


  Dmaj7
|-------------------------------|-----------------------------------|
|-----------------2-------------|-----------------2-----------------|
|-------2-(2)-2-----2-----2-2-2-|-------2-(2)-2---------2-2--2-2----|
|-0---0---------0---------------|--0--0---------0-------------------|
|-------------------------------|-----------------------------------|
|-------------------------------|-----------------------------------|
|
|-------------------------------|-----------------------------------|
|-------------------------------|-----------------------------------|
|-2s4s2---------------(2)-------|-(2)---------------(2)-------------|
|-------------------------------|-----------------------------------|
|-------------------------------|-----------------------------------|
|-------------------------------|-----------------------------------|


  F#madd11                          E
|---------------------------------|------------------------------------|
|-----------------0-(0)-----------|-------------------0-(0)------------|
|-------2-(2)-----------2-2--2--2-|---------1-(1)-----------1-1--1---1-|
|-----4-------4-------------------|-------2-------2--------------------|
|---4-----------4-----------------|-----2-----------2------------------|
|-2-------------------------------|--0---------------------------------|
|
|---------------------------------|------------------------------------|
|-5s7-----------------------(7)---|-(7)----------------------------7-5-|
|---------------------------------|------------------------------------|
|---------------------------------|------------------------------------|
|---------------------------------|------------------------------------|
|---------------------------------|------------------------------------|


  Dmaj7
|-----------------------------------|---------------------------------------|
|-----------------2-----------------|------------------2--------------------|
|-------2-(2)-2-------2---2-----2-2-|--------2-(2)-2----------2-2--2---2----|
|-0---0---------0-------------------|--0---0---------0----------------------|
|-----------------------------------|---------------------------------------|
|-----------------------------------|---------------------------------------|
|
|                       ~~~~~~~~~~~~~~~~~~~
|-----------------------------------|---------------------------------------|
|-----------------------------------|---------------------------------------|
|-6s4-------------2-4p2-------------|----------------------------------2----|
|-----------------------4---(4)-----|-(4)\\---------------(4)\\--------4------|
|-----------------------------------|---------------------------------------|
|-----------------------------------|---------------------------------------|


   Main Theme w/Rhy. Fig. 1
    $
    F#madd11                               E
||---------------------------------------|------------------------------------|
||o-----------------0-(0)----------------|-----------------0-(0)--------------|
||--------2-(2)------------2----2--2---2-|-------1-(1)-----------1--1---1---1-|
||------4-------4------------------------|-----2-------2----------------------|
||o---4-----------4----------------------|---2-----------2--------------------|
||--2------------------------------------|-0----------------------------------|
|
|   Gtr II
|                                                          ~~~~~~~~~~~~
||---------------------------------------|------------------------------------|
||o--------------------------------------|------------------------------------|
||--4-4-4-4-----4s6-2-----(2)h4--------2-|-4-4-4-4-----4s6-2-------(2)--------|
||-----------------------------------4---|--------------------------------4p2-|
||o--------------------------------------|------------------------------------|
||---------------------------------------|------------------------------------|


                                                             To Coda
  Dmaj7
|----------------------------------|-----------------------------------||
|-----------------2----------------|-----------------2----------------o||
|-------2-(2)-2------2----2--2---2-|-------2-(2)-2------2----2--2---2--||
|-0---0---------0------------------|-0---0---------0-------------------||
|----------------------------------|----------------------------------o||
|----------------------------------|-----------------------------------||
|
| PM----|                            PM----|
|----------------------------------|-----------------------------------||
|----------------------------------|----------------------------------o||
|----------------------------------|-----------------------------------||
|-4-4-4-4-----2---4-(4)p2--------2-|-4-4-4-4-----2---4-(4)p2--------2--||
|------------------------------4---|------------------------------4---o||
|----------------------------------|-----------------------------------||


 Pre-Chorus
  C#m                              E
  Gtr III
  |                                |
  /                                /

  Gtr IV
|-----------------4----------4---|----------------0----------------|
|-------5-(5)-------5----(5)-----|-------0-(0)------0------(0)-0---|
|-----6-------6------------------|-------------1-------------------|
|---6-----------6----------------|-----2---------------------------|
|-4------------------------------|---------------------------------|
|--------------------------------|-0-------------------------------|
|
| Gtr II
|                                                 ~~~~~~~~
|--------------------------------|---------------------------------|
|-----5-5-----5---5h==7------5-7-|-7s9-9-9-----7---------------7-9-|
|-4s6---------------------6------|----------------9---(9)----------|
|--------------------------------|---------------------------------|
|--------------------------------|---------------------------------|
|--------------------------------|---------------------------------|


  Bm                                         D                   E
  |                                           |                  |
  /                                           /                  /

|----------------------2-------------------|--------2-(2)------------0-(0)------------|
|----------3-(3)---------3-------(3)--3----|---------------3-(3)------------0----(0)--|
|-------4--------4-------------------------|-----2-----------------1------------------|
|----4--------------4----------------------|--0---------------------------------------|
|-2----------------------------------------|------------------------------------------|
|------------------------------------------|---------------------0--------------------|
|
|                      ~~~~~~~~~                              ~~~
|------------------------------------------|------------------------------------------|
|-9s10-10-10-----9-10s12---(12)------12-12s|=14-12------------------------------------|
|------------------------------------------|-------14-----13------------------14-16---|
|------------------------------------------|-----------------14------------16---------|
|------------------------------------------|------------------------------------------|
|------------------------------------------|------------------------------------------|


 Chorus
  A                                 F#m
   |                                 |
   /                                 /

  Gtr IV
|--------------------0------------|------------------0-------------|
|------0-(0)-----------0-(0)----0-|-------0-(0)--------0-(0)-----0-|
|----------------2------------2---|--------------2------------2----|
|----2-------------2--------------|----4-----------4---------------|
|--0------------------------------|--------------------------------|
|---------------------------------|--2-----------------------------|
|
| Gtr II
|                ~~
|---------------------------------|--------------------------------|
|----------------------------17---|-15---14------------------------|
|-18-----18--16-18----------------|-------------16-------14--14h16-|
|---------------------------------|--------------------------------|
|---------------------------------|--------------------------------|
|---------------------------------|--------------------------------|


  G                                          D
    |                                         |
    /                                         /

|------------------3---------------------3-|------------------------------------------|
|--------0-(0)-------3-(3)------------3----|------------3-(3)--------3-----3----------|
|--------------0---------------------------|----------2-------2--(2)---2------2-------|
|------0---------0-------------------------|--0--------------------------0------------|
|------------------------------------------|------------------------------------------|
|---3--------------------------------------|------------------------------------------|
|
|   ~~~~                                          ~~~~~
|------------------------------------------|------------------------------------------|
|------------------------------------------|------------------------------------------|
|-(16)-----------------16b18r(16)p14----14-|-14-(14)\\---------------------------14-16-|
|------------------------------------16----|---------------------------------16-------|
|------------------------------------------|------------------------------------------|
|------------------------------------------|------------------------------------------|


  A                                 F#m
   |                                 |
   /                                 /

  Gtr IV
|--------------------0------------|------------------0-------------|
|------0-(0)-----------0-(0)----0-|-------0-(0)--------0-(0)-----0-|
|----------------2------------2---|--------------2------------2----|
|----2-------------2--------------|----4-----------4---------------|
|--0------------------------------|--------------------------------|
|---------------------------------|--2-----------------------------|
|
| Gtr II
|                ~~
|---------------------------------|--------------------------------|
|----------------------------17---|-15---14------------------------|
|-18-----18--16-18----------------|-------------16-------14--14h16-|
|---------------------------------|--------------------------------|
|---------------------------------|--------------------------------|
|---------------------------------|--------------------------------|


  G                                        D                       E
    |                                        |                     |
    /                                        /                     /

|------------------3---------------3-----|-------------2-(2)-----------0-(0)-------------|
|--------0-(0)-------3-(3)------3--------|-------------------3-(3)------------0----(0)---|
|--------------0-------------------------|----------2----------------1-------------------|
|------0---------0-----------------------|---0-------------------------------------------|
|----------------------------------------|-----------------------------------------------|
|---3------------------------------------|-------------------------0---------------------|
|
|   ~~~~                                                  ~~~
|----------------------------------------|-----------------------------------------------|
|----------------------------17----------|-----------------------------------------------|
|-(16)-----------------16b18------16pb18r|=(16)p14----14-14\\-----------------------------|
|----------------------------------------|---------16------------------------16-14-------|
|----------------------------------------|-----------------------------------------16----|
|----------------------------------------|-----------------------------------------------|


 Rhy. Fig. 1 w/Guitar Fill
  F#madd11                                 E
  Gtr I
|----------------------------------------|--------------------------------------|
|-------------------0-(0)----------------|---------------------0-(0)------------|
|---------2-(2)-----------2-2---2----2---|-----------1-(1)-----------1-1--1---1-|
|-------4-------4------------------------|---------2-------2--------------------|
|-----4-----------4----------------------|-------2-----------2------------------|
|--2-------------------------------------|---0----------------------------------|
|
| Gtr II
|     ~~
|----------------------------------------|--------------------------------------|
|----------------------------------------|----------------------------------7-5-|
|----------------------------------------|--------------------------------------|
|-14h16-----------------------(16)-(16)\\-|-(16)\\--------------------------------|
|----------------------------------------|--------------------------------------|
|----------------------------------------|--------------------------------------|


                                                       D.S. al Coda
  Dmaj7
|---------------------------------|----------------------------------|
|-----------------2---------------|---------------------2------------|
|-------2-(2)-2-------2---2---2-2-|--------2-(2)-2--------2-2--2---2-|
|-0---0---------0-----------------|--0---0----------0----------------|
|---------------------------------|----------------------------------|
|---------------------------------|----------------------------------|
|
|                           ~~~~~~~~~~~~~
|---------------------------------|----------------------------------|
|---------------------------------|----------------------------------|
|-6s4-------------2-4p2-----------|--------------------------------2-|
|-----------------------4-2-4-----|-(4)\\-----------(4)\\----------4---|
|---------------------------------|----------------------------------|
|---------------------------------|----------------------------------|


 Second Pre-Chorus
  &
  C#m                              E
  Gtr III
  |                                |
  /                                /

  Gtr IV
|-----------------4----------4---|----------------0------------|
|-------5-(5)-------5----(5)-----|-------0-(0)------0--(0)-0---|
|-----6-------6------------------|-------------1---------------|
|---6-----------6----------------|-----2-----------------------|
|-4------------------------------|-----------------------------|
|--------------------------------|-0---------------------------|
|
| Gtr II
|                                                 ~
|--------------------------------|-----------------------------|
|-----5-5-----5---5h==7------5-7-|-7s9-9-9-----7-----------7-9-|
|-4s6---------------------6------|----------------9-----9------|
|--------------------------------|-----------------------------|
|--------------------------------|-----------------------------|
|--------------------------------|-----------------------------|


  Bm                                         D                   E
  |                                           |                  |
  /                                           /                  /

|----------------------2-------------------|--------2-(2)------------0-(0)-------------|
|----------3-(3)---------3-------(3)--3----|---------------3-(3)------------0----(0)---|
|-------4--------4-------------------------|-----2-----------------1-------------------|
|----4--------------4----------------------|--0----------------------------------------|
|-2----------------------------------------|-------------------------------------------|
|------------------------------------------|---------------------0---------------------|
|
|                      ~~~~~~~~~                              ~~~
|------------------------------------------|-------------------------------------------|
|-9s10-10-10-----9-10s12---(12)------12-12s|=14-12-------------------------------------|
|------------------------------------------|-------14-----13------------------14-16----|
|------------------------------------------|-----------------14------------16----------|
|------------------------------------------|-------------------------------------------|
|------------------------------------------|-------------------------------------------|


 Second Chorus
  A                                 F#m
  Gtr III
   |                                 |
   /                                 /

  Gtr IV
|--------------------0------------|------------------0-------------|
|------0-(0)-----------0-(0)----0-|-------0-(0)--------0-(0)-----0-|
|----------------2------------2---|--------------2------------2----|
|----2-------------2--------------|----4-----------4---------------|
|--0------------------------------|--------------------------------|
|---------------------------------|--2-----------------------------|
|
| Gtr II
|                ~~
|---------------------------------|--------------------------------|
|----------------------------17---|-15---14------------------------|
|-18-----18--16-18----------------|-------------16-------14--14h16-|
|---------------------------------|--------------------------------|
|---------------------------------|--------------------------------|
|---------------------------------|--------------------------------|


  G                                                   D
    |                                                  |
    /                                                  /

|-------------------3----------------------------3-|-----------------------------------------|
|--------0-(0)--------------3----(3)-------3-------|-------3-(3)------------3-----3----------|
|--------------0-----------------------------------|----2------------2--(2)---2------2-------|
|------0---------0---------------------------------|--0-------------------------0------------|
|--------------------------------------------------|-----------------------------------------|
|---3----------------------------------------------|-----------------------------------------|
|
|   ~~~~                                                              ~~~
|-----------------------------17-------------------|-----------------------------------------|
|------------------------17------------------------|-----------------------------------------|
|-(16)------------16b18==============16r16p==14----|-14---14--------14\\----------------14-16-|
|-----------------------------------------------16-|-------------16-----------------16-------|
|--------------------------------------------------|-----------------------------------------|
|--------------------------------------------------|-----------------------------------------|


  A                                 F#m
   |                                 |
   /                                 /

|--------------------0------------|------------------0-------------------|
|------0-(0)-----------0-(0)----0-|-------0-(0)--------0-(0)----------0--|
|----------------2------------2---|--------------2------------2----------|
|----2-------------2--------------|----4-----------4---------------------|
|--0------------------------------|--------------------------------------|
|---------------------------------|--2-----------------------------------|
|
|                ~~                                           ~~~~~~~~~~~~
|---------------------------------|--------------------------17b19==(17)-|
|----------------------------17---|-15---14------------------------------|
|-18-----18--16-18----------------|-------------16-------14--------------|
|---------------------------------|--------------------------------------|
|---------------------------------|--------------------------------------|
|---------------------------------|--------------------------------------|


  G                                           D                                E
    |                                          |                               |
    /                                          /                               /

|-------------------3----------3-|------------2--(2)------------------------0-(0)-----------|
|-------0-(0)-3-(3)---------3----|--------------------3----(3)---------------------0----(0)-|
|-------------0------------------|---------2-----------------------------1------------------|
|-----0---------0----------------|--0-------------------------------------------------------|
|--------------------------------|----------------------------------------------------------|
|--3-----------------------------|----------------------------------0-----------------------|
|
|~~~~~~~~~~~~~~~~~~~~~~                       ~~~~~~~
|(17)----------(17)---19b21r(19)rp17----|-17-(17)---17-(17)----17---(17)---------------------|
|------------------------------------19-|-------------------19------------19----19-17--------|
|---------------------------------------|--------------------------------------------18s16-14|
|---------------------------------------|----------------------------------------------------|
|---------------------------------------|----------------------------------------------------|
|---------------------------------------|----------------------------------------------------|


 Rhy. Fig. 1 Variation
  F#madd11                            E
  Gtr I
|-----------------------------------|-----------------------------------|
|-------------------0--(0)----------|---------------------0-(0)---------|
|---------2-(2)-------------2-2-2-2-|-----------1-(1)-----------1-1-1-1-|
|-------4-------4-------------------|---------2-------2-----------------|
|-----4-----------4-----------------|-------2-----------2---------------|
|--2--------------------------------|---0-------------------------------|
|
| Gtr II
|  ~~~
|-----------------------------------|-----------------------------------|
|-----------------------------------|-----------------------------------|
|-----------------------------------|-----------------------------------|
|-16\\-----------------(16)\\---------|-(16)\\-----------------------------|
|-----------------------------------|-----------------------------------|
|-----------------------------------|-----------------------------------|


  Dmaj7
|-------------------|-------------------|
|-----2-------------|-----2-------------|
|-------2-2-2-2-2-2-|-------2-2-2-2-2-2-|
|-0-0---------------|-0-0---------------|
|-------------------|-------------------|
|-------------------|-------------------|
|
|-------------------|-------------------|
|-------------------|-------------------|
|-------------------|-------------------|
|-------------------|-------------------|
|-------------------|-------------------|
|-------------------|-------------------|


 Guitar Solo
  F#madd11                                 E
  Gtr I
|----------------------------------------|--------------------------------------|
|-----------------0-(0)------------------|-------------------0-(0)--------------|
|-------2-(2)------------2---2-----2---2-|---------1-(1)-----------1-1----1---1-|
|-----4-------4--------------------------|-------2-------2----------------------|
|---4-----------4------------------------|-----2-----------2--------------------|
|-2--------------------------------------|--0-----------------------------------|
|
| Gtr II
|   ~~~~~~~~~~~~~~~~~~~~~~~~
|----------------------------------------|--------------------------------------|
|-7s9-------------------(9)-(9)-10---7---|-(7)h9-----------------------/7-7-5---|
|----------------------------------------|------------------------------------6-|
|----------------------------------------|--------------------------------------|
|----------------------------------------|--------------------------------------|
|----------------------------------------|--------------------------------------|


  Dmaj7
|-------------------------------------|-----------------------------------|
|-----------------2-------------------|-----------------2-----------------|
|-------2-(2)-2---------2-2-----2---2-|-------2-(2)-2---------2-2-2--2----|
|-0---0---------0---------------------|-0---0---------0-------------------|
|-------------------------------------|-----------------------------------|
|-------------------------------------|-----------------------------------|
|
|          ~~~~~~~~~~~~~~~~~~~~~                 ~~~~~~~~~~~~~
|-------------------------------------|-----------------------------------|
|-5-----------------------------------|-----------------------------------|
|---6s4p2--4--------(4)-----(4)---4-2-|-4p2-------------------------/6----|
|-------------------------------------|-----4-2--4--------(4)-------------|
|-------------------------------------|-----------------------------------|
|-------------------------------------|-----------------------------------|


  F#madd11                              E
  Gtr I
|-------------------------------------|------------------------------------------|
|-----------------0-(0)---------------|-----------------0-(0)--------------------|
|-------2-(2)-----------2---2---2---2-|-------1-(1)-----------1-----1---1------1-|
|-----4-------4-----------------------|-----2-------2----------------------------|
|---4-----------4---------------------|---2-----------2--------------------------|
|-2-----------------------------------|-0----------------------------------------|
|
| Gtr II
|                                                                   ~~~~~~~
|-------------------------------------|------------------------------------------|
|-7-7---7-----7-5----7--7-5---7-7-5---|---7---7-----7-5----7--5---/12-(12)-10----|
|-----------------6---------6-------6-|-----------------6-------6-------------11-|
|-------------------------------------|------------------------------------------|
|-------------------------------------|------------------------------------------|
|-------------------------------------|------------------------------------------|


  Dmaj7
|--------------------------------------|--------------------------------------------|
|---------------------2----------------|--------------------------2-----------------|
|----------2-(2)--2-----2-2-2--------2-|--------------2-(2)--2----------2--2---2--2-|
|--0-----0----------0------------------|---0-------0------------0-------------------|
|--------------------------------------|--------------------------------------------|
|--------------------------------------|--------------------------------------------|
|
|                 ~~
|--------------------------------------|------------------------------------------2-|
|-12-10------10---------------12b14====|=(12)-12rp10----12--10------10--------------|
|-------11-9-----11--------------------|-------------11--------11-9----11-11-(11)\\--|
|--------------------------------------|--------------------------------------------|
|--------------------------------------|--------------------------------------------|
|--------------------------------------|--------------------------------------------|


 
  





Comments


Popular Gary Hoey tabs & chords
Carol Of The Bells Intro Tabs
Christmas Song Tabs
Desire Tabs
Drive Tabs
Hocus Pocus Tabs
Hocus Pocus 1 Tabs
Lowrider Tabs
Motown Fever Tabs
Rockin Around The Christmas Tree Intro Tabs
Youre A Mean One Mr Grinch 2 Tabs


Song lyrics



↑ Back to top | Tablatures and chords are parodies/interpretations of the original songs. You may use it for private study, scholarship, research or language learning purposes only
© 2014 AZChords.com Contact us | Privacy policy | DMCA | Add/correct tabs | Request tabs | Top 50 tabs