>
 >
I Saw Mommy Kissing Santa Claus

I Saw Mommy Kissing Santa Claus Guitar Tabs

Gary Hoey - I Saw Mommy Kissing Santa Claus chords, tabs, tablatures, lyrics

Guitar lessons | Add/correct | Request | Top 50 tabs Artists:  A B C D E F G H I J K L M N O P Q R S T U V W X Y Z 0-9

I Saw Mommy Kissing Santa Claus Guitar Tabs – Gary Hoey

CD, Sheet music, Poster

Do you like I Saw Mommy Kissing Santa Claus? Share with your friends now
Tabs
Gary Hoey

Tuning: Half Step Down (Eb Ab Db Gb Bb Eb)


Intro:
|---------------------------------------|---------------------------------------------------|
|-------13-13-15---15b17-15b17-15-13----|----------13-13-15---15b17-15b17-15-13-------------|
|-12h14------------------------------14-|----12h14------------------------------14----------|
|---------------------------------------|-14---------------------------------------14s12-10~|
|---------------------------------------|---------------------------------------------------|
|---------------------------------------|---------------------------------------------------|

Main:
|---------------------------------------------------------------------------------------|
|------------------13-12~---------------------------------------------------------------|
|-----------12--14--------12-------12h14-12-----12h14-12--------------------------------|
|-10~-12-14------------------14~------------14-----------14--10-9~----------------------|
|---------------------------------------------------------------------------------------|
|---------------------------------------------------------------------------------------|

|-------------------------------------------|---------------------------------------------------------|
|--------------------10h=12-10-------10-----|---------------------------------12~---------------------|
|-10-9-------------------------12-11----12~-|----------11-12-12s14~-13-14~-15----14----------12b=12.5r|
|-------12-12-11-12~------------------------|-14-12-14------------------------------15-14-12~---------|
|-------------------------------------------|---------------------------------------------------------|
|-------------------------------------------|---------------------------------------------------------|

|----------------------------------------------------------------------------------------|
|------------------13-12~----------------------------------------------------------------|
|-----------12--14--------12-------12h14-12------12h14-12-------12h14~-------------------|
|-10~-12-14------------------14~------------14------------14-----------------------------|
|----------------------------------------------15------------15--------------------------|
|----------------------------------------------------------------------------------------|

|-----------------------------------------------------------------------------------------------|
|-------12-13--13--13-13s15-12~-------------------------------------13~----13~--15~-13--13-15b17|
|-13-14-----------------------------14-14--12-----------------12-14-----14------------14--------|
|--------------------------------16-----------15-14-12--14-15-----------------------------------|
|-----------------------------------------------------------------------------------------------|
|-----------------------------------------------------------------------------------------------|

(1:15)
|------------------------------------------------|
|-15b17-15b17-15-13------------------------------|
|-------------------14\------12-------[14]-------|
|------------------------/14----12---------------|
|----------------------------------15------------|
|------------------------------------------------|

|---------------------------------------------------------------------------------------|
|------------------13-12~---------------------------------------------------------------|
|-----------12--14--------12-------12h14-12-----12h14-12-------------10-9---------------|
|-10~-12-14------------------14~------------14-----------14--10-9~---------12-12-11-12--|
|---------------------------------------------------------------------------------------|
|---------------------------------------------------------------------------------------|

|-------------------------|---------------------------------------------------------------|
|--10h=12-10-------10-----|---------------------------------12~---------------------------|
|------------12-11----12~-|----------11-12-12s14~-13-14~-15----14----------------12b=12.5r|
|-------------------------|-14-12-14------------------------------15-14h15p14-12----------|
|-------------------------|---------------------------------------------------------------|
|-------------------------|---------------------------------------------------------------|

(1:50)
|----------------------------------------------------------------------------------------|
|------------------13-12~----------------------------------------------------------------|
|-----------12--14--------12-------12h14-12------12h14-12-------12h14~==s16-14-14~-14~---|
|-10~-12-14------------------14~------------14------------14-----------------------------|
|----------------------------------------------15------------15--------------------------|
|----------------------------------------------------------------------------------------|

|-----------------------------------------------------------------------------------------------|
|-------12-13--13--13-13s15-12~-------------------------------------13~----13~--15~-13--13-15b17|
|-13-14-----------------------------14-14--12-----------------12-14-----14------------14--------|
|--------------------------------16-----------15-14-12--14-15-----------------------------------|
|-----------------------------------------------------------------------------------------------|
|-----------------------------------------------------------------------------------------------|

|---------------------------------------------------------------------------------------|
|-------13-13~-13-------13--------------------------------------------------------------|
|-12h14-----------12h14---------------------------------------------------12-12---------|
|---------------------------14s12-10~-10-------------------------10-12s14-------14------|
|----------------------------------------12\------------10-10h12------------------------|
|----------------------------------------------10-10h12---------------------------------|

|----15-15~-----------------------------------------------------------------------------|
|----13-13~--------13-13-13-------------------------------------------------------------|
|-12---------12h14----------14p12----------------------12-------------------------------|
|---------------------------------14s12p10----10h12s14----14s12p10-12-12b14rp10----10---|
|------------------------------------------12-----------------------------------12------|
|---------------------------------------------------------------------------------------|

|-------------------------------------15-------------------14h15~-15~-15~-13-12----------------------|
|-----13----13-13----13-15b17---15b17----15b17-13-15p13-------------------------15~-13---------------|
|-/14----14-------14------------------------------------14-----------------------------14p12---------|
|--------------------------------------------------------------------------------------------14s12-10|
|----------------------------------------------------------------------------------------------------|
|----------------------------------------------------------------------------------------------------|

|----------------------------------------------------------------------------------------|
|------------------13-12~----------------------------------------------------------------|
|-----------12--14--------12-------12h14-12------12h14-12-------12h14~-14~~--------------|
|-10~-12-14------------------14~------------14------------14-----------------------------|
|----------------------------------------------15------------15--------------------------|
|----------------------------------------------------------------------------------------|

|-----------------------------------------------------------------------------------------------|
|-------12-13--13--13-13s15-12~-------------------------------------13~----13~--15~p13--13-13---|
|-13-14-----------------------------14-14--12-----------------12-14-----14------------14--------|
|--------------------------------16-----------15-14-12--14-15-----------------------------------|
|-----------------------------------------------------------------------------------------------|
|-----------------------------------------------------------------------------------------------|

|---------------------------------------------------------------------------------------|
|--------------------------------------------------------------------13----13-15b17-----|
|-14p12-------------------------------------12~-------------------------14--------------|
|-------14s12p10---------10-12p10-12-12s14~-----14s12-10-10~----------------------------|
|------------------10h12-------------------------------------12\------------------------|
|---------------------------------------------------------------------------------------|

|-----------------------------------------------------|
|-15b17rp13-15-15b17rp13-15b17--13~~-13---------------|
|-------------------------------14~-----14-14~--------|
|-----------------------------------------------------|
|-----------------------------------------------------|
|-----------------------------------------------------|

(3:18)
|-12-12--15-15------------------15------------------------------------------------------|
|-13-13--13-13--------13--15h17-17--------13--------------------------------------------|
|---------------12h14---------------12h14----12s14----------------12--------------------|
|---------------------------------------------------9s10-10~--/14----14s12-10-10--------|
|---------------------------------------------------------------------------------------|
|---------------------------------------------------------------------------------------|

|---------------------------------------------------------------------------------------|
|--------13~------------13-------13-------13-------13-------13-15-13-15b17-15pb17rp13---|
|-------------14--12h14----12h14----12h14----12h14----12h14-----------------------------|
|----14---------------------------------------------------------------------------------|
|-15------------------------------------------------------------------------------------|
|---------------------------------------------------------------------------------------|

|----------------19b20-19b20~~-------------|
|----13~-----------------------------------|
|-14-----14p12-----------------------------|
|------------------------------------------|
|------------------------------------------|
|------------------------------------------|

Legend:
b - bend
pb - prebend
h - hammeron
s - slide
[#] - natural harmonic
r - release
p - pulloff





Comments


Popular Gary Hoey tabs & chords
Carol Of The Bells Intro Tabs
Coasting Tabs
Desire Tabs
Feliz Navidad Tabs
Karma Climb Tabs
Lowrider Tabs
Part Of Berts Lounge Intro Tabs
Peace Pipe Tabs
Rockin Around The Christmas Tree Tabs
Rockin Around The Christmas Tree Intro Tabs


Song lyrics



↑ Back to top | Tablatures and chords are parodies/interpretations of the original songs. You may use it for private study, scholarship, research or language learning purposes only
© 2014 AZChords.com Contact us | Privacy policy | DMCA | Add/correct tabs | Request tabs | Top 50 tabs