>
 >
Hocus Pocus 1

Hocus Pocus 1 Guitar Tabs

Gary Hoey - Hocus Pocus 1 chords, tabs, tablatures, lyrics

Guitar lessons | Add/correct | Request | Top 50 tabs Artists:  A B C D E F G H I J K L M N O P Q R S T U V W X Y Z 0-9

Hocus Pocus 1 Guitar Tabs – Gary Hoey

CD, Sheet music, Poster

Do you like Hocus Pocus 1? Share with your friends now
TabsTabs v2
-----------------------------------------------------------------------
Hocus Pocus - Gary Hoey
-----------------------------------------------------------------------
Tuning: regular (EADGBE)

This is that kinda intro rhythm part
e|---------------------------------------------------------------------|
B|---------------------------------------------------------------------|
G|---------------------------------------------------------------------|
D|---2-----2-----0H2---2-2-2--------9-10-----7------4-9----------------|
A|---0-0-0-0-0-0-0-0---0-0-0--0-0---7--8-0-0-5-0-0--2-7----------------|
E|---------------------------------------------------------------------|

Play this over /that\
e|--3-h-5--5-5-5-5---3-3-3-h-5--5-5-5--5-------------------------------|
B|--3-h-5--5-5-5-5---3-3-3-h-5--5-5-5--5-------------------------------|
G|----------------------------------------------------------------------|
D|----------------------------------------------------------------------|
A|----------------------------------------------------------------------|
E|----------------------------------------------------------------------|

e|---------------------------------------------------------------------|
B|---------------------------------------------------------------------|
G|---------------------------------------------------------------------|
D|-------2--5---7----7---9---10--/-2----------------------------------|
A|-------0-0-3-0-5----5-0-7-0--8-/--0----------------------------------|
E|---------------------------------------------------------------------|

Wait for the drums and then
e|------12--12-10--10--8--8--7-7--5-5--3-3----------------------------|
B|--------13------12-----10----8----6----5----0--4--5------------------|
G|---------------------------------------------------------------------|
D|---------------------------------------------------------------------|
A|---------------------------------------------------------------------|
E|---------------------------------------------------------------------|

Then there's the solo but its relly hard so I aint typin that shit out but the rhythm 
is the same as up there
  /e|--------------------------------------------------------\-|
 / B|----------------------------------------------------------| \
/  G|----------------------------------------------------------|  \
\  D|---2-----2-----0H2---2-2-2--------9-10-----7------4-9-----|  /
 \ A|---0-0-0-0-0-0-0-0---0-0-0--0-0---7--8-0-0-5-0-0--2-7-----| /
  \E|----------------------------------------------------------|


this is that kinda crazy part of the guitar  yoodaling or utever the hell you call it
e|--8-h-12-p-8---8-h-12-p-8--8-h-12-p-8---8-h-12-p-8-------------------|
B|---------------------------------------------------------------------|
G|---------------------------------------------------------------------|
D|---------------------------------------------------------------------|
A|---------------------------------------------------------------------|
E|---------------------------------------------------------------------|

e|--7-h-10-p-7--7-h-10-p-7--7-h-10-p-7--7-h-10-p-7---------------------|
B|---------------------------------------------------------------------|
G|---------------------------------------------------------------------|
D|---------------------------------------------------------------------|
A|---------------------------------------------------------------------|
E|---------------------------------------------------------------------|

e|--5-h-8-p-5--5-h-8-p-5--5-h-8-p-5--5-h-8-p-5-------------------------|
B|---------------------------------------------------------------------|
G|---------------------------------------------------------------------|
D|---------------------------------------------------------------------|
A|---------------------------------------------------------------------|
E|---------------------------------------------------------------------|

e|--3-h-7-p-3--3-h-7-p-3--3-h-7-p-3--3-h-7-p-3-------------------------|
B|---------------------------------------------------------------------|
G|---------------------------------------------------------------------|
D|---------------------------------------------------------------------|
A|---------------------------------------------------------------------|
E|---------------------------------------------------------------------|

e|--1-h-5-p-1--1-h-5-p-1--1-h-5-p-1--1-h-5-p-1-------------------------|
B|---------------------------------------------------------------------|
G|---------------------------------------------------------------------|
D|---------------------------------------------------------------------|
A|---------------------------------------------------------------------|
E|---------------------------------------------------------------------|

e|--0-h-3-p-0--0-h-3-p-0--0-h-3-p-0--0-h-3-p-0-------------------------|
B|-----------------------------------------------0--4--5---------------|
G|---------------------------------------------------------------------|
D|---------------------------------------------------------------------|
A|---------------------------------------------------------------------|
E|---------------------------------------------------------------------|

| /  slide up
| \  slide down
| h  hammer-on
| p  pull-off
| ~  vibrato
| +  harmonic
| x  Mute note
=======================================================================
This is my first tab entry so just e-mail me and tell me how I did





Comments


Popular Gary Hoey tabs & chords
Carol Of The Bells Intro Tabs
Christmas Song Tabs
Hocus Pocus Tabs
Karma Climb Tabs
Lowrider Tabs
Motown Fever Tabs
Part Of Berts Lounge Intro Tabs
Peace Pipe Tabs
Rockin Around The Christmas Tree Intro Tabs
Youre A Mean One Mr Grinch 1 Tabs


Song lyrics



↑ Back to top | Tablatures and chords are parodies/interpretations of the original songs. You may use it for private study, scholarship, research or language learning purposes only
© 2014 AZChords.com Contact us | Privacy policy | DMCA | Add/correct tabs | Request tabs | Top 50 tabs