» » »

Gary Hoey, Hocus Pocus Tabs (ver.2)

Artists:  A B C D E F G H I J K L M N O P Q R S T U V W X Y Z # 

Hocus Pocus Tabs (ver.2)

Gary Hoey Tabs
 Rating:
4/5 (4 votes)
Hocus Pocus lessons Tabs too difficult? Try these video lessons and learn fast
                -----------------------------------------------------------------------
Hocus Pocus - Gary Hoey
-----------------------------------------------------------------------
Tuning: regular (EADGBE)

This is that kinda intro rhythm part
e|---------------------------------------------------------------------|
B|---------------------------------------------------------------------|
G|---------------------------------------------------------------------|
D|---2-----2-----0H2---2-2-2--------9-10-----7------4-9----------------|
A|---0-0-0-0-0-0-0-0---0-0-0--0-0---7--8-0-0-5-0-0--2-7----------------|
E|---------------------------------------------------------------------|

Play this over /that\
e|--3-h-5--5-5-5—-5---3-3-3-h-5--5-5-5--5-------------------------------|
B|--3-h-5--5-5-5—-5---3-3-3-h-5--5-5-5--5-------------------------------|
G|----------------------------------------------------------------------|
D|----------------------------------------------------------------------|
A|----------------------------------------------------------------------|
E|----------------------------------------------------------------------|

e|---------------------------------------------------------------------|
B|---------------------------------------------------------------------|
G|---------------------------------------------------------------------|
D|-------2—--5---7----7---9---10--/-2----------------------------------|
A|-------0-0-3-0-5----5-0-7-0--8-/--0----------------------------------|
E|---------------------------------------------------------------------|

Wait for the drums and then
e|------12--12—-10--10--8--8--7-7--5-5--3-3----------------------------|
B|--------13------12-----10----8----6----5----0--4--5------------------|
G|---------------------------------------------------------------------|
D|---------------------------------------------------------------------|
A|---------------------------------------------------------------------|
E|---------------------------------------------------------------------|

Then there's the solo but its relly hard so I aint typin that sh*t out but the rhythm 
is the same as up there
  /e|--------------------------------------------------------\-|
 / B|----------------------------------------------------------| \
/  G|----------------------------------------------------------|  \
\  D|---2-----2-----0H2---2-2-2--------9-10-----7------4-9-----|  /
 \ A|---0-0-0-0-0-0-0-0---0-0-0--0-0---7--8-0-0-5-0-0--2-7-----| /
  \E|----------------------------------------------------------|


this is that kinda crazy part of the guitar  yoodaling or utever the hell you call it
e|--8-h-12-p-8---8-h-12-p-8--8-h-12-p-8---8-h-12-p-8-------------------|
B|---------------------------------------------------------------------|
G|---------------------------------------------------------------------|
D|---------------------------------------------------------------------|
A|---------------------------------------------------------------------|
E|---------------------------------------------------------------------|

e|--7-h-10-p-7--7-h-10-p-7--7-h-10-p-7--7-h-10-p-7---------------------|
B|---------------------------------------------------------------------|
G|---------------------------------------------------------------------|
D|---------------------------------------------------------------------|
A|---------------------------------------------------------------------|
E|---------------------------------------------------------------------|

e|--5-h-8-p-5--5-h-8-p-5--5-h-8-p-5--5-h-8-p-5-------------------------|
B|---------------------------------------------------------------------|
G|---------------------------------------------------------------------|
D|---------------------------------------------------------------------|
A|---------------------------------------------------------------------|
E|---------------------------------------------------------------------|

e|--3-h-7-p-3--3-h-7-p-3--3-h-7-p-3--3-h-7-p-3-------------------------|
B|---------------------------------------------------------------------|
G|---------------------------------------------------------------------|
D|---------------------------------------------------------------------|
A|---------------------------------------------------------------------|
E|---------------------------------------------------------------------|

e|--1-h-5-p-1--1-h-5-p-1--1-h-5-p-1--1-h-5-p-1-------------------------|
B|---------------------------------------------------------------------|
G|---------------------------------------------------------------------|
D|---------------------------------------------------------------------|
A|---------------------------------------------------------------------|
E|---------------------------------------------------------------------|

e|--0-h-3-p-0--0-h-3-p-0--0-h-3-p-0--0-h-3-p-0-------------------------|
B|-----------------------------------------------0--4--5---------------|
G|---------------------------------------------------------------------|
D|---------------------------------------------------------------------|
A|---------------------------------------------------------------------|
E|---------------------------------------------------------------------|

| /  slide up
| \  slide down
| h  hammer-on
| p  pull-off
| ~  vibrato
| +  harmonic
| x  Mute note
=======================================================================
This is my first tab entry so just e-mail me and tell me how I did
            
Submit corrections

comments powered by Disqus
↑ Back to top | Gary Hoey Tabs for Hocus Pocus. Lyrics for acoustic guitar and electric guitar. Tablatures and chords are parodies/interpretations of the original songs. You may use it for private study, scholarship, research or language learning purposes only