>
 >
Feliz Navidad

Feliz Navidad Guitar Tabs

Gary Hoey - Feliz Navidad chords, tabs, tablatures, lyrics

Guitar lessons | Add/correct | Request | Top 50 tabs Artists:  A B C D E F G H I J K L M N O P Q R S T U V W X Y Z 0-9

Feliz Navidad Guitar Tabs – Gary Hoey

CD, Sheet music, Poster

Do you like Feliz Navidad? Share with your friends now
Tabs
Gary Hoey
Feliz Navidad (Guitar Instrumental)

Tuning: Half Step Down (Eb Ab Db Gb Bb Eb)


Intro:
|-------------------------------------------12b14rb14rp10--------10b10.5--|
|-10h12~~~p10------10-------------------------------------12~-12----------|
|--------------/11----11s9p7---7~-----------------------------------------|
|----------------------------9-----9p7------------------------------------|
|--------------------------------------9----------------------------------|
|-------------------------------------------------------------------------|

|------------------------------------------|
|-----10-----------------------------------|
|-/11-----9p7--9-7--7h9-7~------7h9--7-----|
|---------------------------9p7------------|
|------------------------------------------|
|------------------------------------------|

Main:
|-------------------------------------------------------------------------|
|-------------------------------------------------------------------------|
|---7--6-7--------7s9-7----------7--6-7-----------------------------------|
|-7--------9~---7-------9-7~---7--------9--9-9-9-9-7-7-9-7-5-5-4~---------|
|-------------------------------------------------------------------------|
|-------------------------------------------------------------------------|

|------------------------------------------------------------------------------|
|------------------------------------------------------------------------------|
|---7--6-7----------7s9-7--------------------7--6-7----------------------------|
|-7--------9~p7---7-------9-7~-----7-9-7~--7--------9--9-9-9-9-7-7-9-7-5-5-4~--|
|-------------------------------/9---------------------------------------------|
|------------------------------------------------------------------------------|

Chorus:
|---------------------------------------------------------------------------|
|-/10-10-10-10------------------8-8-8-8-----------------10-10-10-10---------|
|-/11-11-11-11--9-7-7~------7~--9-9-9-9--7--------------11-11-11-11--9-7-7~-|
|----------------------9-9~----------------9-9-7-6-7------------------------|
|---------------------------------------------------------------------------|
|---------------------------------------------------------------------------|

|-------------------------------------|
|-------------------------------------|
|--------9-7-6-6~--7-9--9=h11p9s7-----|
|-9-9~-9------------------------------|
|-------------------------------------|
|-------------------------------------|

Main:
|-------------------------------------------------------------------------------------|
|-------------------------------------------------------------------------------------|
|---7--6-7--------9-7--------------7--6-7-----------------------------------7---7h9p7-|
|-7--------9~---7-----9-7=h9p7---7--------9--9-9-9-9-7-7-9-7-5-5-4~-----7-9---9-------|
|--------------------------------------------------------------------/9---------------|
|-------------------------------------------------------------------------------------|

|--------------------------------------------------------------------------------------|
|--------------------------------------------------------------------------------------|
|---7--6-7---------9-7--------------7--6-7-----------------------------------7-9-7-----|
|-7--------9~p7--7-----9-7=h9p7---7--------9--9-9-9-9-7-7-9-7-5-5-4~-----7-9-----------|
|---------------------------------------------------------------------/9---------------|
|--------------------------------------------------------------------------------------|

Chorus:
|---------------------------------------------------------------------------|
|-/10-10-10-10------------------8-8-8-8-----------------10-10-10-10---------|
|-/11-11-11-11--9-7-7~------7~--9-9-9-9--7--------------11-11-11-11--9-7-7~-|
|----------------------9-9~----------------9-9-7-6-7------------------------|
|---------------------------------------------------------------------------|
|---------------------------------------------------------------------------|

|--------------------------------------|
|--------------------------------------|
|--------9-7-6-6~--7-9--9=h11p9s7------|
|-9-9~-9-------------------------------|
|--------------------------------------|
|--------------------------------------|

Guitar Solo: (1:51)
|-----10-12-12b14rp10----------------------------------------------------------|
|-/12-----------------12~-12=p10------10---------------------------------------|
|---------------------------------/11----11s9p7---7-9-7h9p7~-------------------|
|-----------------------------------------------9------------9p7---7h9-7--9----|
|----------------------------------------------------------------9-------------|
|------------------------------------------------------------------------------|

|-------------------------------------------10-12b14r-12b14rp10----12-10-12-10-10~|
|-----10-12-10h12-10h12-10h12=p10-----10-12---------------------12----------------|
|-/11------------------------------11---------------------------------------------|
|---------------------------------------------------------------------------------|
|---------------------------------------------------------------------------------|
|---------------------------------------------------------------------------------|

|-10---------------10-------10-------10-------10-------10-----------------|
|----12p10---10h12----10h12----10h12----10h12----10h12----12p10----10-----|
|---------------------------------------------------------------11--------|
|-------------------------------------------------------------------------|
|-------------------------------------------------------------------------|

|-----------------------------7-------------7-------------7-------------------|
|-------------------------------7-10----------10-7------7---10-7----7---------|
|-11s9p7---7-7~----------9b11--------9b11~---------9b11----------10---10p9p7--|
|--------9------9p7--7-9------------------------------------------------------|
|-----------------------------------------------------------------------------|
|-----------------------------------------------------------------------------|
|-----------------------------------------------------------------------------|

|------------------7---10b12-10pb12-10-10--10b12=-10b10.5---7----7----7~--|
|-------------7h10---7----------------------------------------10---10-----|
|---9-7h9-7~--------------------------------------------------------------|
|-9-----------------------------------------------------------------------|
|-------------------------------------------------------------------------|
|-------------------------------------------------------------------------|

|-7--------7-7-----------------------------------10-10--------------------|
|---10p7---7-7-10p7----7-------------------------10-10--------------------|
|--------9----------10---10-10-10p9p7---7---9b11-------9b11rp7---7~-------|
|-------------------------------------9---9--------------------9----------|
|-------------------------------------------------------------------------|
|-------------------------------------------------------------------------|

Main:
|----10-9-10-------------12-10-------------------10-9-10------------------|
|-10---------12~=p10--10-------12-10h12p10----10---------12--12-12-12-12--|
|-------------------------------------------------------------------------|
|-------------------------------------------------------------------------|
|-------------------------------------------------------------------------|
|-------------------------------------------------------------------------|

|--------------------------------------------17-17-17-17-------------------|
|-10-10-12-10---------------------15-17-15---19-19-19-19-17-15-15-------15-|
|-------------12-12-11------14-16---------------------------------16-16----|
|-----------------------/16------------------------------------------------|
|--------------------------------------------------------------------------|
|--------------------------------------------------------------------------|

|-15-15-15-15---------------------17-17-17-17-----------------------------|
|-17-17-17-17-15------------------19-19-19-19-17-15-15----------15h17-15--|
|----------------16-16-14-13-14------------------------16-16-16-----------|
|-------------------------------------------------------------------------|
|-------------------------------------------------------------------------|
|-------------------------------------------------------------------------|

|---------------------------------------17-17-17-17-17-17-17------------|
|-14-14~--15-17--17h19p17---------17s19-19-19-19-19-19-19-19-17-15-15~--|
|-------------------------19-19~----------------------------------------|
|-----------------------------------------------------------------------|
|-----------------------------------------------------------------------|
|-----------------------------------------------------------------------|

|------------15----15-15-15--------------------17-17-17-17--------------|
|-------15~--15h17-17-17-17-15-----------------19-19-19-19-17-15-15~----|
|-16-16------------------------16-16-14-13-14------------------------16-|
|-----------------------------------------------------------------------|
|-----------------------------------------------------------------------|
|-----------------------------------------------------------------------|

|--------------------------------------------------17-------------------|
|----15h17-15-14-14~-15-17--17h19p17---------17b19----17pb19----15~-----|
|-16---------------------------------19-19~------------------16---------|
|-----------------------------------------------------------------------|
|-----------------------------------------------------------------------|
|-----------------------------------------------------------------------|


(3:09)
-Guitar Improv Outro- (Some easy guitar improv, it should be easy to figure out) 
i might tab this part later...

Legend:
pb - prebend
b - bend
s - slide
h - hammeron
p - pulloff





Comments


Popular Gary Hoey tabs & chords
Carol Of The Bells Intro Tabs
Coasting Tabs
Desire Tabs
Drive Tabs
Karma Climb Tabs
Linus And Lucy Tabs
Lowrider Tabs
Rockin Around The Christmas Tree Tabs
Rockin Around The Christmas Tree Intro Tabs
Youre A Mean One Mr Grinch 2 Tabs


Song lyrics



↑ Back to top | Tablatures and chords are parodies/interpretations of the original songs. You may use it for private study, scholarship, research or language learning purposes only
© 2014 AZChords.com Contact us | Privacy policy | DMCA | Add/correct tabs | Request tabs | Top 50 tabs