>
 >
Christmas Song

Christmas Song Guitar Tabs

Gary Hoey - Christmas Song chords, tabs, tablatures, lyrics

Guitar lessons | Add/correct | Request | Top 50 tabs Artists:  A B C D E F G H I J K L M N O P Q R S T U V W X Y Z 0-9

Christmas Song Guitar Tabs – Gary Hoey

CD, Sheet music, Poster

Do you like Christmas Song? Share with your friends now
Tabs
Gary Hoey
The Christmas Song
Tuning: Half Step Down (Eb Ab Db Gb Bb Eb)

Intro:
|----------14h=15p14--12-14---------------------------------|
|-13-12~---------------------15s=17s15-14-15--15------------|
|-12-11~-----------------------------------------14---------|
|-13-12~----------------------------------------------------|
|-----------------------------------------------------------|
|-----------------------------------------------------------|

|-14h=15p14--12-14-----------------------------------------------|
|-------------------15-----------14s15-14--12-10s=12-------------|
|----------------------14------------------11---------10---------|
|----------------------------------------------------------------|
|----------------------------------------------------------------|
|----------------------------------------------------------------|

Main:
|------------------------------------------------------------------|
|-----14s15--14-12---------------------------12--------------------|
|------------------12s14-12--11-11-11-----------14-12-11-----------|
|-12--------------------------------------12-------------12s14-12--|
|------------------------------------------------------------------|
|------------------------------------------------------------------|

|--------------------7-7s9--9-----------------------------------------|
|---------------7-10----------11--11-11s13-11-10-8-8s10---10-8-7------|
|-7-7-7s9--7=s9--------------------------------------------------9-7--|
|---------------------------------------------------------------------|
|---------------------------------------------------------------------|
|---------------------------------------------------------------------|

(0:49)
|----------------------------------------------------------------|
|-/15-14-12---------------------------12-------------------------|
|------------14-12-11-12s14-11-----------14-12--11---------------|
|----------------------------------12--------------14-12---------|
|----------------------------------------------------------------|
|----------------------------------------------------------------|

|----------------------------------------------------------------|
|--------------------10-12-12s14--12-------12--------------------|
|-7-7--9\--7-9-9s11------------------14-------14-----------------|
|---------------------------------------12-------12--12s14-12----|
|----------------------------------------------------------------|
|----------------------------------------------------------------|

|------------------------------------------------------------------|
|--------/13--12---------------------------13-12-12h13-12-12h13-12-|
|-----------------14-12-12s14------7s=5----------------------------|
|-7-5-7-----------14-12-12s14--------------------------------------|
|------------------------------------------------------------------|
|------------------------------------------------------------------|

|----------------------------------------------------------------|
|----------------------11s13-13s11--10---------------------------|
|-14-12-12s14--------------------------12-10-10h12---------------|
|---------------12s10--------------------------------------------|
|----------------------------------------------------------------|
|----------------------------------------------------------------|

(1:34)
|--------------------12\-----|
|----------------------------|
|-12s10-9--9--9-9-9----------|
|----------------------------|
|----------------------------|
|----------------------------|

|-----------------------------------------------------------------|
|--------15--14-12-----------------------------12-----------------|
|-11---------------14--12-11-12s14-11-------------14--12-11-------|
|----12-------------------------------------12--------------14-12-|
|-----------------------------------------------------------------|
|-----------------------------------------------------------------|

(1:56)
|-------------------------7-7s9--9s10----------------------------|
|-------------------7--10-------------12-10----------------------|
|---7---7--9\---7-9----------------------------------------------|
|-7---7--------------------------------------12---12s14-12-------|
|----------------------------------------------------------------|
|----------------------------------------------------------------|

|---------------------------------------------------------------|
|-15s13-p12-13~-12--12h13p12----12--------------15--15----15-15-|
|----------------------------14-----14-12-12h14-----------------|
|---------------------------------------------------------------|
|---------------------------------------------------------------|
|---------------------------------------------------------------|

|---------------------------------------------------------14-------|
|-13h15p13s12-13-13~--12h13p12----12---------------15--------15----|
|------------------------------14----14-12---12h14----14--------14-|
|------------------------------------------------------------------|
|------------------------------------------------------------------|
|------------------------------------------------------------------|

|------------------------------------------------------------------------|
|----10-11-11s13--11h13p11p10-11-10---10h11p10----10---------------------|
|-12-------------------------------------------12----12-10-12s14-12s==14-|
|------------------------------------------------------------------------|
|------------------------------------------------------------------------|
|------------------------------------------------------------------------|

|---------------------------------------------------------------10s12\---------17\-|
|-10-------------------------------------------------------8h10---------15--17-----|
|----12--10h12p10-9-10-9----------------------------7h9h10-------------------------|
|------------------------12-10---------------7-9-10--------------------------------|
|-------------------------------------7-8-10---------------------------------------|
|----------------------------------------------------------------------------------|

Verse:
|-----------------------------------------------------------------------|
|--------15--14-12-----------------------------12-----------------------|
|-11---------------14--12-11-12s14-11-------------14--12-11-------------|
|----12-------------------------------------12--------------14-14s16s12-|
|-----------------------------------------------------------------------|
|-----------------------------------------------------------------------|

|-------------------------7-7s9--9s10----------------------------|
|-------------------7--10-------------12-10----------------------|
|---7---7--9\---7-9----------------------------------------------|
|-7---7--------------------------------------12---14s16s14-12----|
|----------------------------------------------------------------|
|----------------------------------------------------------------|

|-14h15p14--12-14-12s=10----------------------12-14-12-----------|
|-------------------------15-----------14s=15----------15s=17-15-|
|----------------------------14----------------------------------|
|----------------------------------------------------------------|
|----------------------------------------------------------------|
|----------------------------------------------------------------|

|----------------------------------------------------------------|
|-14h15--------15-12-----------------------15-12-----------------|
|-------14-----------14--------------------------14--------------|
|-----------------------12---14s16s14-12------------12-14s16-----|
|----------------------------------------------------------------|
|----------------------------------------------------------------|

Outro:
|--------14---------14---14-17------------|
|-15-15--15--15-15--15---15-17--15-17-----|
|-14-14------14-14--------------16--------|
|-----------------------------------------|
|-----------------------------------------|
|-----------------------------------------|

|--------------------------------------|
|-15s17p14-----------------------5-----|
|----------14-12-11--------------6-----|
|-------------------12-11--------4-----|
|-------------------------9------------|
|--------------------------------------|





Comments


Popular Gary Hoey tabs & chords
Carol Of The Bells Intro Tabs
Coasting Tabs
Drive Tabs
Feliz Navidad Tabs
Hocus Pocus 1 Tabs
Karma Climb Tabs
Motown Fever Tabs
Rockin Around The Christmas Tree Tabs
Youre A Mean One Mr Grinch Tabs
Youre A Mean One Mr Grinch 2 Tabs


Song lyrics



↑ Back to top | Tablatures and chords are parodies/interpretations of the original songs. You may use it for private study, scholarship, research or language learning purposes only
© 2014 AZChords.com Contact us | Privacy policy | DMCA | Add/correct tabs | Request tabs | Top 50 tabs